  0
SECTION
  2
HEADER
  9
$ACADVER
  1
AC1015
  9
$ACADMAINTVER
 70
     6
  9
$DWGCODEPAGE
  3
ANSI_1252
  9
$INSBASE
 10
0.0
 20
0.0
 30
0.0
  9
$EXTMIN
 10
-79.930222093
 20
-26.893953331
 30
0.0
  9
$EXTMAX
 10
79.9615659287
 20
0.0
 30
0.0
  9
$LIMMIN
 10
0.0
 20
0.0
  9
$LIMMAX
 10
420.0
 20
297.0
  9
$ORTHOMODE
 70
     0
  9
$REGENMODE
 70
     1
  9
$FILLMODE
 70
     1
  9
$QTEXTMODE
 70
     0
  9
$MIRRTEXT
 70
     1
  9
$LTSCALE
 40
1.0
  9
$ATTMODE
 70
     1
  9
$TEXTSIZE
 40
3.5
  9
$TRACEWID
 40
1.0
  9
$TEXTSTYLE
  7
Standard
  9
$CLAYER
  8
0
  9
$CELTYPE
  6
ByLayer
  9
$CECOLOR
 62
   256
  9
$CELTSCALE
 40
1.0
  9
$DISPSILH
 70
     0
  9
$DIMSCALE
 40
1.0
  9
$DIMASZ
 40
3.302
  9
$DIMEXO
 40
1.0
  9
$DIMDLI
 40
3.75
  9
$DIMRND
 40
0.0
  9
$DIMDLE
 40
0.0
  9
$DIMEXE
 40
1.0
  9
$DIMTP
 40
0.0
  9
$DIMTM
 40
0.0
  9
$DIMTXT
 40
3.5
  9
$DIMCEN
 40
2.5
  9
$DIMTSZ
 40
0.0
  9
$DIMTOL
 70
     0
  9
$DIMLIM
 70
     0
  9
$DIMTIH
 70
     1
  9
$DIMTOH
 70
     1
  9
$DIMSE1
 70
     0
  9
$DIMSE2
 70
     0
  9
$DIMTAD
 70
     1
  9
$DIMZIN
 70
     1
  9
$DIMBLK
  1

  9
$DIMASO
 70
     1
  9
$DIMSHO
 70
     1
  9
$DIMPOST
  1

  9
$DIMAPOST
  1

  9
$DIMALT
 70
     0
  9
$DIMALTD
 70
     3
  9
$DIMALTF
 40
0.0393700787
  9
$DIMLFAC
 40
1.0
  9
$DIMTOFL
 70
     1
  9
$DIMTVP
 40
0.0
  9
$DIMTIX
 70
     0
  9
$DIMSOXD
 70
     0
  9
$DIMSAH
 70
     0
  9
$DIMBLK1
  1

  9
$DIMBLK2
  1

  9
$DIMSTYLE
  2
ISO-25
  9
$DIMCLRD
 70
     0
  9
$DIMCLRE
 70
     0
  9
$DIMCLRT
 70
     0
  9
$DIMTFAC
 40
1.0
  9
$DIMGAP
 40
1.524
  9
$DIMJUST
 70
     0
  9
$DIMSD1
 70
     0
  9
$DIMSD2
 70
     0
  9
$DIMTOLJ
 70
     0
  9
$DIMTZIN
 70
     1
  9
$DIMALTZ
 70
     0
  9
$DIMALTTZ
 70
     0
  9
$DIMUPT
 70
     0
  9
$DIMDEC
 70
     2
  9
$DIMTDEC
 70
     2
  9
$DIMALTU
 70
     2
  9
$DIMALTTD
 70
     3
  9
$DIMTXSTY
  7
Standard
  9
$DIMAUNIT
 70
     0
  9
$DIMADEC
 70
     2
  9
$DIMALTRND
 40
0.0
  9
$DIMAZIN
 70
     0
  9
$DIMDSEP
 70
    44
  9
$DIMATFIT
 70
     3
  9
$DIMFRAC
 70
     0
  9
$DIMLDRBLK
  1

  9
$DIMLUNIT
 70
     2
  9
$DIMLWD
 70
    -2
  9
$DIMLWE
 70
    -2
  9
$DIMTMOVE
 70
     0
  9
$LUNITS
 70
     2
  9
$LUPREC
 70
     2
  9
$SKETCHINC
 40
1.0
  9
$FILLETRAD
 40
10.0
  9
$AUNITS
 70
     0
  9
$AUPREC
 70
     2
  9
$MENU
  1
.
  9
$ELEVATION
 40
0.0
  9
$PELEVATION
 40
0.0
  9
$THICKNESS
 40
0.0
  9
$LIMCHECK
 70
     0
  9
$CHAMFERA
 40
0.0
  9
$CHAMFERB
 40
0.0
  9
$CHAMFERC
 40
0.0
  9
$CHAMFERD
 40
0.0
  9
$SKPOLY
 70
     0
  9
$TDCREATE
 40
2458862.40613272
  9
$TDUCREATE
 40
2458862.40613272
  9
$TDUPDATE
 40
2458862.406153843
  9
$TDUUPDATE
 40
2458862.406153843
  9
$TDINDWG
 40
0.0000000116
  9
$TDUSRTIMER
 40
0.0000000116
  9
$USRTIMER
 70
     1
  9
$ANGBASE
 50
0.0
  9
$ANGDIR
 70
     0
  9
$PDMODE
 70
     0
  9
$PDSIZE
 40
-1.0
  9
$PLINEWID
 40
0.0
  9
$SPLFRAME
 70
     0
  9
$SPLINETYPE
 70
     6
  9
$SPLINESEGS
 70
     8
  9
$HANDSEED
  5
48C
  9
$SURFTAB1
 70
     6
  9
$SURFTAB2
 70
     6
  9
$SURFTYPE
 70
     6
  9
$SURFU
 70
     6
  9
$SURFV
 70
     6
  9
$UCSBASE
  2

  9
$UCSNAME
  2

  9
$UCSORG
 10
0.0
 20
0.0
 30
0.0
  9
$UCSXDIR
 10
1.0
 20
0.0
 30
0.0
  9
$UCSYDIR
 10
0.0
 20
1.0
 30
0.0
  9
$UCSORTHOREF
  2

  9
$UCSORTHOVIEW
 70
     0
  9
$UCSORGTOP
 10
0.0
 20
0.0
 30
0.0
  9
$UCSORGBOTTOM
 10
0.0
 20
0.0
 30
0.0
  9
$UCSORGLEFT
 10
0.0
 20
0.0
 30
0.0
  9
$UCSORGRIGHT
 10
0.0
 20
0.0
 30
0.0
  9
$UCSORGFRONT
 10
0.0
 20
0.0
 30
0.0
  9
$UCSORGBACK
 10
0.0
 20
0.0
 30
0.0
  9
$PUCSBASE
  2

  9
$PUCSNAME
  2

  9
$PUCSORG
 10
0.0
 20
0.0
 30
0.0
  9
$PUCSXDIR
 10
1.0
 20
0.0
 30
0.0
  9
$PUCSYDIR
 10
0.0
 20
1.0
 30
0.0
  9
$PUCSORTHOREF
  2

  9
$PUCSORTHOVIEW
 70
     0
  9
$PUCSORGTOP
 10
0.0
 20
0.0
 30
0.0
  9
$PUCSORGBOTTOM
 10
0.0
 20
0.0
 30
0.0
  9
$PUCSORGLEFT
 10
0.0
 20
0.0
 30
0.0
  9
$PUCSORGRIGHT
 10
0.0
 20
0.0
 30
0.0
  9
$PUCSORGFRONT
 10
0.0
 20
0.0
 30
0.0
  9
$PUCSORGBACK
 10
0.0
 20
0.0
 30
0.0
  9
$USERI1
 70
     0
  9
$USERI2
 70
     0
  9
$USERI3
 70
     0
  9
$USERI4
 70
     0
  9
$USERI5
 70
     0
  9
$USERR1
 40
0.0
  9
$USERR2
 40
0.0
  9
$USERR3
 40
0.0
  9
$USERR4
 40
0.0
  9
$USERR5
 40
0.0
  9
$WORLDVIEW
 70
     1
  9
$SHADEDGE
 70
     3
  9
$SHADEDIF
 70
    70
  9
$TILEMODE
 70
     1
  9
$MAXACTVP
 70
    64
  9
$PINSBASE
 10
0.0
 20
0.0
 30
0.0
  9
$PLIMCHECK
 70
     0
  9
$PEXTMIN
 10
-79.9645918664
 20
23.5
 30
0.0
  9
$PEXTMAX
 10
79.930222093
 20
42.6196232319
 30
0.0
  9
$PLIMMIN
 10
-92.40776805
 20
18.8338089311
  9
$PLIMMAX
 10
92.3733982766
 20
149.487158859
  9
$UNITMODE
 70
     0
  9
$VISRETAIN
 70
     1
  9
$PLINEGEN
 70
     0
  9
$PSLTSCALE
 70
     1
  9
$TREEDEPTH
 70
  3020
  9
$CMLSTYLE
  2
Standard
  9
$CMLJUST
 70
     0
  9
$CMLSCALE
 40
20.0
  9
$PROXYGRAPHICS
 70
     1
  9
$MEASUREMENT
 70
     1
  9
$CELWEIGHT
370
    -1
  9
$ENDCAPS
280
     0
  9
$JOINSTYLE
280
     0
  9
$LWDISPLAY
290
     1
  9
$INSUNITS
 70
     4
  9
$HYPERLINKBASE
  1

  9
$STYLESHEET
  1

  9
$XEDIT
290
     1
  9
$CEPSNTYPE
380
     0
  9
$PSTYLEMODE
290
     1
  9
$FINGERPRINTGUID
  2
{aa2bcb01-c5cf-4e18-a30f-67699bc91bee}
  9
$VERSIONGUID
  2
{FAEB1C32-E019-11D5-929B-00C0DF256EC4}
  9
$EXTNAMES
290
     1
  9
$PSVPSCALE
 40
0.0
  9
$OLESTARTUP
290
     0
  0
ENDSEC
  0
SECTION
  2
CLASSES
  0
CLASS
  1
ACDBDICTIONARYWDFLT
  2
AcDbDictionaryWithDefault
  3
ObjectDBX Classes
 90
        0
280
     0
281
     0
  0
CLASS
  1
VISUALSTYLE
  2
AcDbVisualStyle
  3
ObjectDBX Classes
 90
     4095
280
     0
281
     0
  0
CLASS
  1
MATERIAL
  2
AcDbMaterial
  3
ObjectDBX Classes
 90
     1153
280
     0
281
     0
  0
CLASS
  1
SCALE
  2
AcDbScale
  3
ObjectDBX Classes
 90
     1153
280
     0
281
     0
  0
CLASS
  1
TABLESTYLE
  2
AcDbTableStyle
  3
ObjectDBX Classes
 90
     4095
280
     0
281
     0
  0
CLASS
  1
MLEADERSTYLE
  2
AcDbMLeaderStyle
  3
ACDB_MLEADERSTYLE_CLASS
 90
     4095
280
     0
281
     0
  0
CLASS
  1
SUN
  2
AcDbSun
  3
SCENEOE
 90
     1153
280
     0
281
     0
  0
CLASS
  1
ACDBPLACEHOLDER
  2
AcDbPlaceHolder
  3
ObjectDBX Classes
 90
        0
280
     0
281
     0
  0
CLASS
  1
LAYOUT
  2
AcDbLayout
  3
ObjectDBX Classes
 90
        0
280
     0
281
     0
  0
ENDSEC
  0
SECTION
  2
TABLES
  0
TABLE
  2
VPORT
  5
8
330
0
100
AcDbSymbolTable
 70
     1
  0
VPORT
  5
29
330
8
100
AcDbSymbolTableRecord
100
AcDbViewportTableRecord
  2
*Active
 70
     0
 10
0.0
 20
0.0
 11
1.0
 21
1.0
 12
0.0156719179
 22
-13.4469766655
 13
0.0
 23
0.0
 14
10.0
 24
10.0
 15
10.0
 25
10.0
 16
0.0
 26
0.0
 36
1.0
 17
0.0
 27
0.0
 37
0.0
 40
27.4318323976
 41
5.945269037
 42
50.0
 43
0.0
 44
0.0
 50
0.0
 51
0.0
 71
     0
 72
   100
 73
     1
 74
     3
 75
     0
 76
     0
 77
     0
 78
     0
281
     0
 65
     1
110
0.0
120
0.0
130
0.0
111
1.0
121
0.0
131
0.0
112
0.0
122
1.0
132
0.0
 79
     0
146
0.0
  0
ENDTAB
  0
TABLE
  2
LTYPE
  5
5
330
0
100
AcDbSymbolTable
 70
     6
  0
LTYPE
  5
14
330
5
100
AcDbSymbolTableRecord
100
AcDbLinetypeTableRecord
  2
ByBlock
 70
     0
  3

 72
    65
 73
     0
 40
0.0
  0
LTYPE
  5
15
330
5
100
AcDbSymbolTableRecord
100
AcDbLinetypeTableRecord
  2
ByLayer
 70
     0
  3

 72
    65
 73
     0
 40
0.0
  0
LTYPE
  5
16
330
5
100
AcDbSymbolTableRecord
100
AcDbLinetypeTableRecord
  2
Continuous
 70
     0
  3
Solid line
 72
    65
 73
     0
 40
0.0
  0
LTYPE
  5
6E
330
5
100
AcDbSymbolTableRecord
100
AcDbLinetypeTableRecord
  2
HIDDEN
 70
     0
  3
Hidden __ __ __ __ __ __ __ __ __ __ __ __ __ __
 72
    65
 73
     2
 40
1.905
 49
1.27
 74
     0
 49
-0.635
 74
     0
  0
LTYPE
  5
6F
330
5
100
AcDbSymbolTableRecord
100
AcDbLinetypeTableRecord
  2
PHANTOM
 70
     0
  3
Phantom ______  __  __  ______  __  __  ______
 72
    65
 73
     6
 40
12.7
 49
6.35
 74
     0
 49
-1.27
 74
     0
 49
1.27
 74
     0
 49
-1.27
 74
     0
 49
1.27
 74
     0
 49
-1.27
 74
     0
  0
LTYPE
  5
70
330
5
100
AcDbSymbolTableRecord
100
AcDbLinetypeTableRecord
  2
CENTER
 70
     0
  3
Center ____ _ ____ _ ____ _ ____ _ ____ _ ____
 72
    65
 73
     4
 40
10.16
 49
6.35
 74
     0
 49
-1.27
 74
     0
 49
1.27
 74
     0
 49
-1.27
 74
     0
  0
LTYPE
  5
71
330
5
100
AcDbSymbolTableRecord
100
AcDbLinetypeTableRecord
  2
CENTERX2
 70
     0
  3
Center (2x) ________  __  ________  __  _____
 72
    65
 73
     4
 40
20.32
 49
12.7
 74
     0
 49
-2.54
 74
     0
 49
2.54
 74
     0
 49
-2.54
 74
     0
  0
LTYPE
  5
72
330
5
100
AcDbSymbolTableRecord
100
AcDbLinetypeTableRecord
  2
DOT2
 70
     0
  3
Dot (.5x) ........................................
 72
    65
 73
     2
 40
0.635
 49
0.0
 74
     0
 49
-0.635
 74
     0
  0
ENDTAB
  0
TABLE
  2
LAYER
  5
2
330
0
100
AcDbSymbolTable
 70
     1
  0
LAYER
  5
10
330
2
100
AcDbSymbolTableRecord
100
AcDbLayerTableRecord
  2
0
 70
     0
 62
     7
  6
Continuous
370
    -3
390
F
  0
ENDTAB
  0
TABLE
  2
STYLE
  5
3
330
0
100
AcDbSymbolTable
 70
     1
  0
STYLE
  5
11
330
3
100
AcDbSymbolTableRecord
100
AcDbTextStyleTableRecord
  2
Standard
 70
     0
 40
0.0
 41
1.0
 50
0.0
 71
     0
 42
3.5
  3
txt
  4

  0
ENDTAB
  0
TABLE
  2
VIEW
  5
6
330
0
100
AcDbSymbolTable
 70
     0
  0
ENDTAB
  0
TABLE
  2
UCS
  5
7
330
0
100
AcDbSymbolTable
 70
     0
  0
ENDTAB
  0
TABLE
  2
APPID
  5
9
330
0
100
AcDbSymbolTable
 70
     1
  0
APPID
  5
12
330
9
100
AcDbSymbolTableRecord
100
AcDbRegAppTableRecord
  2
ACAD
 70
     0
  0
ENDTAB
  0
TABLE
  2
DIMSTYLE
  5
A
330
0
100
AcDbSymbolTable
 70
     1
100
AcDbDimStyleTable
  0
DIMSTYLE
105
27
330
A
100
AcDbSymbolTableRecord
100
AcDbDimStyleTableRecord
  2
ISO-25
 70
     0
 41
2.5
 42
0.625
 43
3.75
 44
1.25
 73
     0
 74
     0
 77
     1
 78
     8
140
2.5
141
2.5
143
0.0393700787
147
0.625
171
     3
172
     1
178
     0
271
     2
272
     2
274
     3
278
    44
283
     0
284
     8
340
11
  0
ENDTAB
  0
TABLE
  2
BLOCK_RECORD
  5
1
330
0
100
AcDbSymbolTable
 70
     9
  0
BLOCK_RECORD
  5
1F
330
1
100
AcDbSymbolTableRecord
100
AcDbBlockTableRecord
  2
*Model_Space
340
22
  0
BLOCK_RECORD
  5
1B
330
1
100
AcDbSymbolTableRecord
100
AcDbBlockTableRecord
  2
*Paper_Space
340
1E
  0
BLOCK_RECORD
  5
23
330
1
100
AcDbSymbolTableRecord
100
AcDbBlockTableRecord
  2
*Paper_Space0
340
26
  0
BLOCK_RECORD
  5
148
330
1
100
AcDbSymbolTableRecord
100
AcDbBlockTableRecord
  2
*Paper_Space1
340
149
  0
BLOCK_RECORD
  5
195
330
1
100
AcDbSymbolTableRecord
100
AcDbBlockTableRecord
  2
*Paper_Space2
340
196
  0
BLOCK_RECORD
  5
1DC
330
1
100
AcDbSymbolTableRecord
100
AcDbBlockTableRecord
  2
*Paper_Space3
340
1DD
  0
BLOCK_RECORD
  5
236
330
1
100
AcDbSymbolTableRecord
100
AcDbBlockTableRecord
  2
*Paper_Space4
340
237
  0
BLOCK_RECORD
  5
2A7
330
1
100
AcDbSymbolTableRecord
100
AcDbBlockTableRecord
  2
*Paper_Space5
340
2A8
  0
BLOCK_RECORD
  5
319
330
1
100
AcDbSymbolTableRecord
100
AcDbBlockTableRecord
  2
*Paper_Space6
340
31A
  0
BLOCK_RECORD
  5
395
330
1
100
AcDbSymbolTableRecord
100
AcDbBlockTableRecord
  2
*Paper_Space7
340
396
  0
BLOCK_RECORD
  5
407
330
1
100
AcDbSymbolTableRecord
100
AcDbBlockTableRecord
  2
*Paper_Space8
340
408
  0
ENDTAB
  0
ENDSEC
  0
SECTION
  2
BLOCKS
  0
BLOCK
  5
20
330
1F
100
AcDbEntity
  8
0
100
AcDbBlockBegin
  2
*Model_Space
 70
     0
 10
0.0
 20
0.0
 30
0.0
  3
*Model_Space
  1

  0
ENDBLK
  5
21
330
1F
100
AcDbEntity
  8
0
100
AcDbBlockEnd
  0
BLOCK
  5
1C
330
1B
100
AcDbEntity
 67
     1
  8
0
100
AcDbBlockBegin
  2
*Paper_Space
 70
     0
 10
0.0
 20
0.0
 30
0.0
  3
*Paper_Space
  1

  0
ENDBLK
  5
1D
330
1B
100
AcDbEntity
 67
     1
  8
0
100
AcDbBlockEnd
  0
BLOCK
  5
24
330
23
100
AcDbEntity
  8
0
100
AcDbBlockBegin
  2
*Paper_Space0
 70
     0
 10
0.0
 20
0.0
 30
0.0
  3
*Paper_Space0
  1

  0
LWPOLYLINE
  5
10A
330
23
100
AcDbEntity
  8
0
  6
Continuous
 62
     7
370
    25
100
AcDbPolyline
 90
        9
 70
   128
 43
0.0
 10
23.5
 20
-9.834623697
 10
23.5038429439
 20
-9.8217340629
 10
23.5152240935
 20
-9.8093397701
 10
23.5337060775
 20
-9.7979171245
 10
23.5585786438
 20
-9.7879050919
 10
23.5888859534
 20
-9.7796884291
 10
23.6234633135
 20
-9.7735828978
 10
23.6609819356
 20
-9.7698231302
 10
23.7
 20
-9.7685536121
  0
LWPOLYLINE
  5
110
330
23
100
AcDbEntity
  8
0
  6
Continuous
 62
     7
370
    25
100
AcDbPolyline
 90
        9
 70
   128
 43
0.0
 10
30.5321553546
 20
-0.160776773
 10
30.5263080711
 20
-0.1495561303
 10
30.5137382388
 20
-0.1401177625
 10
30.494889973
 20
-0.1327951443
 10
30.4704292177
 20
-0.1278469974
 10
30.4412202163
 20
-0.1254481489
 10
30.4082949766
 20
-0.1256833546
 10
30.372816808
 20
-0.1285443042
 10
30.3360392195
 20
-0.1339299151
  0
LWPOLYLINE
  5
115
330
23
100
AcDbEntity
  8
0
  6
Continuous
 62
     7
370
    25
100
AcDbPolyline
 90
        9
 70
   128
 43
0.0
 10
23.5
 20
-0.2
 10
23.5038429439
 20
-0.1871103659
 10
23.5152240935
 20
-0.1747160731
 10
23.5337060775
 20
-0.1632934275
 10
23.5585786438
 20
-0.1532813949
 10
23.5888859534
 20
-0.1450647321
 10
23.6234633135
 20
-0.1389592008
 10
23.6609819356
 20
-0.1351994332
 10
23.7
 20
-0.1339299151
  0
LINE
  5
12C
330
23
100
AcDbEntity
  8
0
  6
Continuous
 62
     7
370
    25
100
AcDbLine
 10
36.3302232764
 20
-26.893953331
 30
0.0
 11
42.4199559824
 21
-26.893953331
 31
0.0
  0
LINE
  5
12D
330
23
100
AcDbEntity
  8
0
  6
Continuous
 62
     7
370
    25
100
AcDbLine
 10
23.7
 20
-10.1312810334
 30
0.0
 11
23.7
 21
0.0
 31
0.0
  0
LINE
  5
12E
330
23
100
AcDbEntity
  8
0
  6
Continuous
 62
     7
370
    25
100
AcDbLine
 10
32.2629639589
 20
-9.7685536121
 30
0.0
 11
23.7
 21
-9.7685536121
 31
0.0
  0
LINE
  5
12F
330
23
100
AcDbEntity
  8
0
  6
Continuous
 62
     7
370
    25
100
AcDbLine
 10
32.6737406891
 20
-10.8687034455
 30
0.0
 11
30.5321553546
 21
-0.160776773
 31
0.0
  0
LINE
  5
130
330
23
100
AcDbEntity
  8
0
  6
Continuous
 62
     7
370
    25
100
AcDbLine
 10
23.7
 20
-10.0328237943
 30
0.0
 11
32.5065647589
 21
-10.0328237943
 31
0.0
  0
LINE
  5
131
330
23
100
AcDbEntity
  8
0
  6
Continuous
 62
     7
370
    25
100
AcDbLine
 10
30.3360392195
 20
-0.1339299151
 30
0.0
 11
32.2629639589
 21
-9.7685536121
 31
0.0
  0
LINE
  5
132
330
23
100
AcDbEntity
  8
0
  6
Continuous
 62
     7
370
    25
100
AcDbLine
 10
23.7
 20
-0.1339299151
 30
0.0
 11
30.3360392195
 21
-0.1339299151
 31
0.0
  0
LINE
  5
133
330
23
100
AcDbEntity
  8
0
  6
Continuous
 62
     7
370
    25
100
AcDbLine
 10
23.5
 20
-0.2
 30
0.0
 11
23.5
 21
-9.9330809361
 31
0.0
  0
LINE
  5
134
330
23
100
AcDbEntity
  8
0
  6
Continuous
 62
     7
370
    25
100
AcDbLine
 10
32.6737406891
 20
-10.8687034455
 30
0.0
 11
42.3936811325
 21
-26.8489557633
 31
0.0
  0
LINE
  5
135
330
23
100
AcDbEntity
  8
0
  6
Continuous
 62
     7
370
    25
100
AcDbLine
 10
42.3936811325
 20
-26.8489557633
 30
0.0
 11
36.297671501
 21
-26.8489557633
 31
0.0
  0
LINE
  5
136
330
23
100
AcDbEntity
  8
0
  6
Continuous
 62
     7
370
    25
100
AcDbLine
 10
36.297671501
 20
-26.8489557633
 30
0.0
 11
23.7
 21
-10.1312810334
 31
0.0
  0
LINE
  5
137
330
23
100
AcDbEntity
  8
0
  6
Continuous
 62
     7
370
    25
100
AcDbLine
 10
23.540272898
 20
-10.0534439407
 30
0.0
 11
36.1704961739
 21
-26.8143163349
 31
0.0
  0
LINE
  5
138
330
23
100
AcDbEntity
  8
0
  6
Continuous
 62
     7
370
    25
100
AcDbLine
 10
42.5908297247
 20
-26.5900198707
 30
0.0
 11
32.5
 21
-10.0
 31
0.0
  0
LINE
  5
139
330
23
100
AcDbEntity
  8
0
  6
Continuous
 62
     7
370
    25
100
AcDbLine
 10
30.3360392195
 20
-0.1339299151
 30
0.0
 11
30.3360392195
 21
0.0
 31
0.0
  0
LINE
  5
13A
330
23
100
AcDbEntity
  8
0
  6
Continuous
 62
     7
370
    25
100
AcDbLine
 10
30.3360392195
 20
0.0
 30
0.0
 11
23.7
 21
0.0
 31
0.0
  0
LINE
  5
13B
330
23
100
AcDbEntity
  8
0
  6
Continuous
 62
     8
370
    25
100
AcDbLine
 10
42.3936811325
 20
-26.8489557633
 30
0.0
 11
42.4199559823
 21
-26.8939533308
 31
0.0
  0
LINE
  5
13C
330
23
100
AcDbEntity
  8
0
  6
Continuous
 62
     8
370
    25
100
AcDbLine
 10
36.3302232762
 20
-26.8939533306
 30
0.0
 11
36.297671501
 21
-26.8489557633
 31
0.0
  0
ARC
  5
13D
330
23
100
AcDbEntity
  8
0
  6
Continuous
 62
     7
370
    25
100
AcDbCircle
 10
42.4199559824
 20
-26.693953331
 30
0.0
 40
0.2000000000000028
100
AcDbArc
 50
270.0
 51
31.309932474
  0
ARC
  5
13E
330
23
100
AcDbEntity
  8
0
  6
Continuous
 62
     7
370
    25
100
AcDbCircle
 10
36.3302232764
 20
-26.693953331
 30
0.0
 40
0.2000000000000092
100
AcDbArc
 50
217.0
 51
266.8710979679
  0
ARC
  5
13F
330
23
100
AcDbEntity
  8
0
  6
Continuous
 62
     7
370
    25
100
AcDbCircle
 10
23.6991040982
 20
-9.8337196593
 30
0.0
 40
0.199106150601748
100
AcDbArc
 50
180.2601512914
 51
270.2578100405
  0
ARC
  5
140
330
23
100
AcDbEntity
  8
0
  6
Continuous
 62
     7
370
    25
100
AcDbCircle
 10
31.804357162
 20
-10.4509114153
 30
0.0
 40
0.8221510601876547
100
AcDbArc
 50
31.7144210701
 51
56.0952925684
  0
ARC
  5
141
330
23
100
AcDbEntity
  8
0
  6
Continuous
 62
     7
370
    25
100
AcDbCircle
 10
23.6991040982
 20
-9.9321768984
 30
0.0
 40
0.1991061506017512
100
AcDbArc
 50
180.2601512914
 51
270.2578100405
  0
ARC
  5
142
330
23
100
AcDbEntity
  8
0
  6
Continuous
 62
     7
370
    25
100
AcDbCircle
 10
23.7
 20
-9.9330809361
 30
0.0
 40
0.2000000000000053
100
AcDbArc
 50
180.0
 51
217.0
  0
ARC
  5
143
330
23
100
AcDbEntity
  8
0
  6
Continuous
 62
     7
370
    25
100
AcDbCircle
 10
23.6968304339
 20
-9.9349811212
 30
0.0
 40
0.1963254992803955
100
AcDbArc
 50
217.1137996256
 51
270.9250487015
  0
ARC
  5
144
330
23
100
AcDbEntity
  8
0
  6
Continuous
 62
     7
370
    25
100
AcDbCircle
 10
36.2945019349
 20
-26.6526558511
 30
0.0
 40
0.1963254992803933
100
AcDbArc
 50
217.1137996256
 51
270.9250487015
  0
ARC
  5
145
330
23
100
AcDbEntity
  8
0
  6
Continuous
 62
     7
370
    25
100
AcDbCircle
 10
42.392633235
 20
-26.6489769198
 30
0.0
 40
0.1999815889878749
100
AcDbArc
 50
270.3002295292
 51
30.7184996919
  0
ARC
  5
146
330
23
100
AcDbEntity
  8
0
  6
Continuous
 62
     7
370
    25
100
AcDbCircle
 10
23.7
 20
-0.2
 30
0.0
 40
0.2000000000000028
100
AcDbArc
 50
90.0
 51
180.0
  0
ARC
  5
147
330
23
100
AcDbEntity
  8
0
  6
Continuous
 62
     7
370
    25
100
AcDbCircle
 10
30.3360392195
 20
-0.2
 30
0.0
 40
0.2000000000000037
100
AcDbArc
 50
11.309932474
 51
90.0
  0
VIEWPORT
  5
47A
330
23
100
AcDbEntity
  8
0
100
AcDbViewport
 10
0.0
 20
0.0
 30
0.0
 40
205.6
 41
156.0
 68
     1
 69
     1
 12
0.0156719179
 22
-13.4469766655
 13
0.0
 23
0.0
 14
10.0
 24
10.0
 15
10.0
 25
10.0
 16
0.0
 26
0.0
 36
1.0
 17
0.0
 27
0.0
 37
0.0
 42
50.0
 43
0.0
 44
0.0
 45
123.7450452821
 50
0.0
 51
0.0
 72
   100
 90
   557152
  1

281
     0
 71
     1
 74
     0
110
0.0
120
0.0
130
0.0
111
1.0
121
0.0
131
0.0
112
0.0
122
1.0
132
0.0
 79
     0
146
0.0
  0
ENDBLK
  5
25
330
23
100
AcDbEntity
  8
0
100
AcDbBlockEnd
  0
BLOCK
  5
14A
330
148
100
AcDbEntity
  8
0
100
AcDbBlockBegin
  2
*Paper_Space1
 70
     0
 10
0.0
 20
0.0
 30
0.0
  3
*Paper_Space1
  1

  0
LWPOLYLINE
  5
158
330
148
100
AcDbEntity
  8
0
  6
Continuous
 62
     7
370
    25
100
AcDbPolyline
 90
        9
 70
   128
 43
0.0
 10
-79.7490327142
 20
-9.9330809361
 10
-79.7505994275
 20
-9.9319680948
 10
-79.7521661232
 20
-9.9308552287
 10
-79.7537328014
 20
-9.929742338
 10
-79.755299462
 20
-9.9286294225
 10
-79.756866105
 20
-9.9275164823
 10
-79.7584327304
 20
-9.9264035174
 10
-79.7599993383
 20
-9.9252905277
 10
-79.7615659287
 20
-9.9241775133
  0
CIRCLE
  5
15A
330
148
100
AcDbEntity
  8
0
  6
Continuous
 62
     7
370
    25
100
AcDbCircle
 10
-48.0
 20
-5.0
 30
0.0
 40
1.750000000000043
  0
CIRCLE
  5
15B
330
148
100
AcDbEntity
  8
0
  6
Continuous
 62
     7
370
    25
100
AcDbCircle
 10
48.0
 20
-5.0
 30
0.0
 40
1.750000000000007
  0
LWPOLYLINE
  5
164
330
148
100
AcDbEntity
  8
0
  6
Continuous
 62
     7
370
    25
100
AcDbPolyline
 90
        9
 70
   128
 43
0.0
 10
-79.8774024665
 20
-10.0872170684
 10
-79.8758333033
 20
-10.0883319107
 10
-79.8742641225
 20
-10.0894467282
 10
-79.8726949242
 20
-10.090561521
 10
-79.8711257082
 20
-10.091676289
 10
-79.8695564747
 20
-10.0927910323
 10
-79.8679872235
 20
-10.0939057508
 10
-79.8664179548
 20
-10.0950204445
 10
-79.8648486684
 20
-10.0961351135
  0
LWPOLYLINE
  5
166
330
148
100
AcDbEntity
  8
0
  6
Continuous
 62
     7
370
    25
100
AcDbPolyline
 90
        9
 70
   128
 43
0.0
 10
-79.8648486684
 20
-10.0961351135
 10
-79.8552383121
 20
-10.1008192062
 10
-79.8437732253
 20
-10.1025739875
 10
-79.8306536296
 20
-10.1013688126
 10
-79.8161086401
 20
-10.097224728
 10
-79.8003922645
 20
-10.0902141044
 10
-79.783778967
 20
-10.0804593725
 10
-79.7665588754
 20
-10.0681308847
 10
-79.7490327142
 20
-10.0534439407
  0
LWPOLYLINE
  5
171
330
148
100
AcDbEntity
  8
0
  6
Continuous
 62
     7
370
    25
100
AcDbPolyline
 90
        9
 70
   128
 43
0.0
 10
-46.8926382251
 20
-26.5789852179
 10
-46.901681873
 20
-26.5958533327
 10
-46.9105950487
 20
-26.61074162
 10
-46.919249162
 20
-26.6234352871
 10
-46.9275193604
 20
-26.633751203
 10
-46.9352863302
 20
-26.6415405405
 10
-46.9424380176
 20
-26.646690923
 10
-46.9488712456
 20
-26.6491280463
 10
-46.9544932021
 20
-26.64881675
  0
LINE
  5
174
330
148
100
AcDbEntity
  8
0
  6
Continuous
 62
     7
370
    25
100
AcDbLine
 10
76.358103799
 20
0.0
 30
0.0
 11
-76.358103799
 21
0.0
 31
0.0
  0
LINE
  5
175
330
148
100
AcDbEntity
  8
0
  6
Continuous
 62
     7
370
    25
100
AcDbLine
 10
76.358103799
 20
-0.2
 30
0.0
 11
76.358103799
 21
0.0
 31
0.0
  0
LINE
  5
176
330
148
100
AcDbEntity
  8
0
  6
Continuous
 62
     7
370
    25
100
AcDbLine
 10
-76.358103799
 20
-0.2
 30
0.0
 11
76.358103799
 21
-0.2
 31
0.0
  0
LINE
  5
177
330
148
100
AcDbEntity
  8
0
  6
Continuous
 62
     7
370
    25
100
AcDbLine
 10
-76.358103799
 20
-0.2
 30
0.0
 11
-76.358103799
 21
0.0
 31
0.0
  0
LINE
  5
178
330
148
100
AcDbEntity
  8
0
  6
Continuous
 62
     7
370
    25
100
AcDbLine
 10
79.0013080447
 20
-9.9330809361
 30
0.0
 11
-79.7490327142
 21
-9.9330809361
 31
0.0
  0
LINE
  5
179
330
148
100
AcDbEntity
  8
0
  6
Continuous
 62
     7
370
    25
100
AcDbLine
 10
79.0013080447
 20
-10.0534439407
 30
0.0
 11
79.0013080447
 21
-9.9330809361
 31
0.0
  0
LINE
  5
17A
330
148
100
AcDbEntity
  8
0
  6
Continuous
 62
     7
370
    25
100
AcDbLine
 10
-79.7490327142
 20
-10.0534439407
 30
0.0
 11
79.0013080447
 21
-10.0534439407
 31
0.0
  0
LINE
  5
17B
330
148
100
AcDbEntity
  8
0
  6
Continuous
 62
     7
370
    25
100
AcDbLine
 10
-79.7490327142
 20
-10.0534439407
 30
0.0
 11
-79.7490327142
 21
-9.9330809361
 31
0.0
  0
LINE
  5
17C
330
148
100
AcDbEntity
  8
0
  6
Continuous
 62
     7
370
    25
100
AcDbLine
 10
76.358103799
 20
-0.2
 30
0.0
 11
76.5468754703
 21
-0.1339299151
 31
0.0
  0
LINE
  5
17D
330
148
100
AcDbEntity
  8
0
  6
Continuous
 62
     7
370
    25
100
AcDbLine
 10
76.358103799
 20
-0.2
 30
0.0
 11
79.730222093
 21
-9.834623697
 31
0.0
  0
LINE
  5
17E
330
148
100
AcDbEntity
  8
0
  6
Continuous
 62
     7
370
    25
100
AcDbLine
 10
79.730222093
 20
-9.834623697
 30
0.0
 11
79.0013080447
 21
-9.9330809361
 31
0.0
  0
LINE
  5
17F
330
148
100
AcDbEntity
  8
0
  6
Continuous
 62
     7
370
    25
100
AcDbLine
 10
-79.7615659287
 20
-9.9241775133
 30
0.0
 11
-76.358103799
 21
-0.2
 31
0.0
  0
LINE
  5
180
330
148
100
AcDbEntity
  8
0
  6
Continuous
 62
     7
370
    25
100
AcDbLine
 10
79.9189937642
 20
-9.7685536121
 30
0.0
 11
76.5468754703
 21
-0.1339299151
 31
0.0
  0
LINE
  5
181
330
148
100
AcDbEntity
  8
0
  6
Continuous
 62
     7
370
    25
100
AcDbLine
 10
79.730222093
 20
-9.834623697
 30
0.0
 11
79.9189937642
 21
-9.7685536121
 31
0.0
  0
LINE
  5
182
330
148
100
AcDbEntity
  8
0
  6
Continuous
 62
     7
370
    25
100
AcDbLine
 10
-79.7615659287
 20
-9.9241775133
 30
0.0
 11
-79.9503375999
 21
-9.8581074284
 31
0.0
  0
LINE
  5
183
330
148
100
AcDbEntity
  8
0
  6
Continuous
 62
     7
370
    25
100
AcDbLine
 10
-79.8774024665
 20
-10.0872170684
 30
0.0
 11
-79.7615659287
 21
-9.9241775133
 31
0.0
  0
LINE
  5
184
330
148
100
AcDbEntity
  8
0
  6
Continuous
 62
     7
370
    25
100
AcDbLine
 10
-76.5468754703
 20
-0.1339299151
 30
0.0
 11
-79.9503375999
 21
-9.8581074284
 31
0.0
  0
LINE
  5
185
330
148
100
AcDbEntity
  8
0
  6
Continuous
 62
     7
370
    25
100
AcDbLine
 10
-76.358103799
 20
-0.2
 30
0.0
 11
-76.5468754703
 21
-0.1339299151
 31
0.0
  0
LINE
  5
186
330
148
100
AcDbEntity
  8
0
  6
Continuous
 62
     7
370
    25
100
AcDbLine
 10
-79.8648486684
 20
-10.0961351135
 30
0.0
 11
-79.7490327142
 21
-9.9330809361
 31
0.0
  0
LINE
  5
187
330
148
100
AcDbEntity
  8
0
  6
Continuous
 62
     7
370
    25
100
AcDbLine
 10
79.7569937465
 20
-10.0328237943
 30
0.0
 11
79.730222093
 21
-9.834623697
 31
0.0
  0
LINE
  5
188
330
148
100
AcDbEntity
  8
0
  6
Continuous
 62
     7
370
    25
100
AcDbLine
 10
-44.7388274373
 20
-26.8489557633
 30
0.0
 11
79.7569937465
 21
-10.0328237943
 31
0.0
  0
LINE
  5
189
330
148
100
AcDbEntity
  8
0
  6
Continuous
 62
     7
370
    25
100
AcDbLine
 10
79.0280796982
 20
-10.1312810334
 30
0.0
 11
79.0013080447
 21
-9.9330809361
 31
0.0
  0
LINE
  5
18A
330
148
100
AcDbEntity
  8
0
  6
Continuous
 62
     7
370
    25
100
AcDbLine
 10
79.0013080447
 20
-10.0534439407
 30
0.0
 11
-44.7655990909
 21
-26.7711186706
 31
0.0
  0
ARC
  5
18B
330
148
100
AcDbEntity
  8
0
  6
Continuous
 62
     7
370
    25
100
AcDbCircle
 10
76.358103799
 20
-0.2
 30
0.0
 40
0.1999999999999957
100
AcDbArc
 50
19.2900462192
 51
90.0
  0
ARC
  5
18C
330
148
100
AcDbEntity
  8
0
  6
Continuous
 62
     7
370
    25
100
AcDbCircle
 10
-79.7615659287
 20
-9.9241775133
 30
0.0
 40
0.2000000000000162
100
AcDbArc
 50
160.7099537808
 51
234.6069221344
  0
ARC
  5
18D
330
148
100
AcDbEntity
  8
0
  6
Continuous
 62
     7
370
    25
100
AcDbCircle
 10
-76.358103799
 20
-0.2
 30
0.0
 40
0.1999999999999709
100
AcDbArc
 50
90.0
 51
160.7099537808
  0
ARC
  5
18E
330
148
100
AcDbEntity
  8
0
  6
Continuous
 62
     7
370
    25
100
AcDbCircle
 10
79.730222093
 20
-9.834623697
 30
0.0
 40
0.1999999999999905
100
AcDbArc
 50
277.6926042333
 51
19.2900462192
  0
ARC
  5
18F
330
148
100
AcDbEntity
  8
0
  6
Continuous
 62
     7
370
    25
100
AcDbCircle
 10
79.1539602118
 20
-10.0444625709
 30
0.0
 40
0.1529161506419831
100
AcDbArc
 50
183.3671453836
 51
214.5936197064
  0
ARC
  5
190
330
148
100
AcDbEntity
  8
0
  6
Continuous
 62
     7
370
    25
100
AcDbCircle
 10
-44.6129469238
 20
-26.7621373008
 30
0.0
 40
0.1529161506423786
100
AcDbArc
 50
183.3671453836
 51
214.5936197063
  0
ARC
  5
191
330
148
100
AcDbEntity
  8
0
  6
Continuous
 62
     7
370
    25
100
AcDbCircle
 10
-45.4081187759
 20
-22.0143163356
 30
0.0
 40
4.800000000000094
100
AcDbArc
 50
251.9844628484
 51
277.6926042333
  0
ARC
  5
192
330
148
100
AcDbEntity
  8
0
  6
Continuous
 62
     7
370
    25
100
AcDbCircle
 10
-9.2296522241
 20
89.2289015105
 30
0.0
 40
121.7783525221823
100
AcDbArc
 50
234.6141553689
 51
251.9844628484
  0
ARC
  5
193
330
148
100
AcDbEntity
  8
0
  6
Continuous
 62
     7
370
    25
100
AcDbCircle
 10
-9.2296522241
 20
89.3492645152
 30
0.0
 40
121.9783525221806
100
AcDbArc
 50
234.6141553689
 51
251.9844628484
  0
ARC
  5
194
330
148
100
AcDbEntity
  8
0
  6
Continuous
 62
     7
370
    25
100
AcDbCircle
 10
-45.4081187759
 20
-21.893953331
 30
0.0
 40
4.999999999999936
100
AcDbArc
 50
251.9844628484
 51
277.6926042333
  0
VIEWPORT
  5
47C
330
148
100
AcDbEntity
  8
0
100
AcDbViewport
 10
0.0
 20
0.0
 30
0.0
 40
205.6
 41
156.0
 68
     1
 69
     1
 12
0.0156719179
 22
-13.4469766655
 13
0.0
 23
0.0
 14
10.0
 24
10.0
 15
10.0
 25
10.0
 16
0.0
 26
0.0
 36
1.0
 17
0.0
 27
0.0
 37
0.0
 42
50.0
 43
0.0
 44
0.0
 45
123.7450452821
 50
0.0
 51
0.0
 72
   100
 90
   557152
  1

281
     0
 71
     1
 74
     0
110
0.0
120
0.0
130
0.0
111
1.0
121
0.0
131
0.0
112
0.0
122
1.0
132
0.0
 79
     0
146
0.0
  0
ENDBLK
  5
14B
330
148
100
AcDbEntity
  8
0
100
AcDbBlockEnd
  0
BLOCK
  5
197
330
195
100
AcDbEntity
  8
0
100
AcDbBlockBegin
  2
*Paper_Space2
 70
     0
 10
0.0
 20
0.0
 30
0.0
  3
*Paper_Space2
  1

  0
LWPOLYLINE
  5
19D
330
195
100
AcDbEntity
  8
0
  6
Continuous
 62
     7
370
    25
100
AcDbPolyline
 90
        9
 70
   128
 43
0.0
 10
-23.5
 20
-9.9241775133
 10
-23.5038429439
 20
-9.9112878792
 10
-23.5152240935
 20
-9.8988935865
 10
-23.5337060775
 20
-9.8874709409
 10
-23.5585786438
 20
-9.8774589082
 10
-23.5888859534
 20
-9.8692422454
 10
-23.6234633135
 20
-9.8631367142
 10
-23.6609819356
 20
-9.8593769466
 10
-23.7
 20
-9.8581074284
  0
SPLINE
  5
1A1
330
195
100
AcDbEntity
  8
0
  6
Continuous
 62
     7
370
    25
100
AcDbSpline
210
0.0
220
0.0
230
1.0
 70
     8
 71
     3
 72
     8
 73
     4
 74
     0
 42
0.000000001
 43
0.00000001
 40
0.0
 40
0.0
 40
0.0
 40
0.0
 40
0.0000453377850437
 40
0.0000453377850437
 40
0.0000453377850437
 40
0.0000453377850437
 10
-32.52256782775287
 20
-10.11283913876438
 30
0.0
 10
-32.52082974124997
 20
-10.10414870624985
 30
0.0
 10
-32.51748998452467
 20
-10.09551763225035
 30
0.0
 10
-32.51269433225359
 20
-10.08721706836374
 30
0.0
  0
LWPOLYLINE
  5
1A3
330
195
100
AcDbEntity
  8
0
  6
Continuous
 62
     7
370
    25
100
AcDbPolyline
 90
        9
 70
   128
 43
0.0
 10
-30.5321553546
 20
-0.160776773
 10
-30.5263080711
 20
-0.1495561303
 10
-30.5137382388
 20
-0.1401177625
 10
-30.494889973
 20
-0.1327951443
 10
-30.4704292177
 20
-0.1278469974
 10
-30.4412202163
 20
-0.1254481489
 10
-30.4082949766
 20
-0.1256833546
 10
-30.372816808
 20
-0.1285443042
 10
-30.3360392195
 20
-0.1339299151
  0
LWPOLYLINE
  5
1A8
330
195
100
AcDbEntity
  8
0
  6
Continuous
 62
     7
370
    25
100
AcDbPolyline
 90
        9
 70
   128
 43
0.0
 10
-23.5
 20
-0.2
 10
-23.5038429439
 20
-0.1871103659
 10
-23.5152240935
 20
-0.1747160731
 10
-23.5337060775
 20
-0.1632934275
 10
-23.5585786438
 20
-0.1532813949
 10
-23.5888859534
 20
-0.1450647321
 10
-23.6234633135
 20
-0.1389592008
 10
-23.6609819356
 20
-0.1351994332
 10
-23.7
 20
-0.1339299151
  0
LINE
  5
1C0
330
195
100
AcDbEntity
  8
0
  6
Continuous
 62
     7
370
    25
100
AcDbLine
 10
-42.4199559824
 20
-26.893953331
 30
0.0
 11
-36.3302232764
 21
-26.893953331
 31
0.0
  0
LINE
  5
1C1
330
195
100
AcDbEntity
  8
0
  6
Continuous
 62
     7
370
    25
100
AcDbLine
 10
-23.7
 20
0.0
 30
0.0
 11
-23.7
 21
-10.0961351135
 31
0.0
  0
LINE
  5
1C2
330
195
100
AcDbEntity
  8
0
  6
Continuous
 62
     7
370
    25
100
AcDbLine
 10
-32.2808747221
 20
-9.8581074284
 30
0.0
 11
-30.3360392195
 21
-0.1339299151
 31
0.0
  0
LINE
  5
1C3
330
195
100
AcDbEntity
  8
0
  6
Continuous
 62
     7
370
    25
100
AcDbLine
 10
-30.5321553546
 20
-0.160776773
 30
0.0
 11
-32.6636206493
 21
-10.8181032467
 31
0.0
  0
LINE
  5
1C4
330
195
100
AcDbEntity
  8
0
  6
Continuous
 62
     7
370
    25
100
AcDbLine
 10
-32.5126943323
 20
-10.0872170684
 30
0.0
 11
-23.7
 21
-10.0872170684
 31
0.0
  0
LINE
  5
1C5
330
195
100
AcDbEntity
  8
0
  6
Continuous
 62
     7
370
    25
100
AcDbLine
 10
-23.7
 20
-9.8581074284
 30
0.0
 11
-32.2808747221
 21
-9.8581074284
 31
0.0
  0
LINE
  5
1C6
330
195
100
AcDbEntity
  8
0
  6
Continuous
 62
     7
370
    25
100
AcDbLine
 10
-30.3360392195
 20
-0.1339299151
 30
0.0
 11
-23.7
 21
-0.1339299151
 31
0.0
  0
LINE
  5
1C7
330
195
100
AcDbEntity
  8
0
  6
Continuous
 62
     7
370
    25
100
AcDbLine
 10
-23.5
 20
-9.9330809361
 30
0.0
 11
-23.5
 21
-0.2
 31
0.0
  0
LINE
  5
1C8
330
195
100
AcDbEntity
  8
0
  6
Continuous
 62
     7
370
    25
100
AcDbLine
 10
-23.7
 20
-10.0961351135
 30
0.0
 11
-36.1528885596
 21
-26.64881675
 31
0.0
  0
LINE
  5
1C9
330
195
100
AcDbEntity
  8
0
  6
Continuous
 62
     7
370
    25
100
AcDbLine
 10
-36.1528885596
 20
-26.64881675
 30
0.0
 11
-42.2768165373
 21
-26.64881675
 31
0.0
  0
LINE
  5
1CA
330
195
100
AcDbEntity
  8
0
  6
Continuous
 62
     7
370
    25
100
AcDbLine
 10
-42.2768165373
 20
-26.64881675
 30
0.0
 11
-32.6636206493
 21
-10.8181032467
 31
0.0
  0
LINE
  5
1CB
330
195
100
AcDbEntity
  8
0
  6
Continuous
 62
     7
370
    25
100
AcDbLine
 10
-36.1704961739
 20
-26.8143163349
 30
0.0
 11
-23.540272898
 21
-10.0534439407
 31
0.0
  0
LINE
  5
1CC
330
195
100
AcDbEntity
  8
0
  6
Continuous
 62
     7
370
    25
100
AcDbLine
 10
-32.5
 20
-10.0
 30
0.0
 11
-42.5908295344
 21
-26.5900195577
 31
0.0
  0
LINE
  5
1CD
330
195
100
AcDbEntity
  8
0
  6
Continuous
 62
     7
370
    25
100
AcDbLine
 10
-30.3360392195
 20
0.0
 30
0.0
 11
-30.3360392195
 21
-0.1339299151
 31
0.0
  0
LINE
  5
1CE
330
195
100
AcDbEntity
  8
0
  6
Continuous
 62
     7
370
    25
100
AcDbLine
 10
-23.7
 20
0.0
 30
0.0
 11
-30.3360392195
 21
0.0
 31
0.0
  0
LINE
  5
1CF
330
195
100
AcDbEntity
  8
0
  6
Continuous
 62
     8
370
    25
100
AcDbLine
 10
-42.4199559822
 20
-26.8939533307
 30
0.0
 11
-42.2768165373
 21
-26.64881675
 31
0.0
  0
LINE
  5
1D0
330
195
100
AcDbEntity
  8
0
  6
Continuous
 62
     8
370
    25
100
AcDbLine
 10
-36.1528885596
 20
-26.64881675
 30
0.0
 11
-36.330223275
 21
-26.893953329
 31
0.0
  0
ARC
  5
1D1
330
195
100
AcDbEntity
  8
0
  6
Continuous
 62
     7
370
    25
100
AcDbCircle
 10
-42.4199559824
 20
-26.693953331
 30
0.0
 40
0.2000000000000028
100
AcDbArc
 50
148.690067526
 51
270.0
  0
ARC
  5
1D2
330
195
100
AcDbEntity
  8
0
  6
Continuous
 62
     7
370
    25
100
AcDbCircle
 10
-36.3302232764
 20
-26.693953331
 30
0.0
 40
0.2000000000000156
100
AcDbArc
 50
272.8593690677
 51
323.0
  0
ARC
  5
1D3
330
195
100
AcDbEntity
  8
0
  6
Continuous
 62
     7
370
    25
100
AcDbCircle
 10
-23.6832273706
 20
-9.9036025929
 30
0.0
 40
0.1843789486291358
100
AcDbArc
 50
264.7806880467
 51
353.5929967704
  0
ARC
  5
1D4
330
195
100
AcDbEntity
  8
0
  6
Continuous
 62
     7
370
    25
100
AcDbCircle
 10
-31.6086990705
 20
-10.7700693908
 30
0.0
 40
1.132914263080772
100
AcDbArc
 50
126.3926445631
 51
142.9336378801
  0
ARC
  5
1D5
330
195
100
AcDbEntity
  8
0
  6
Continuous
 62
     7
370
    25
100
AcDbCircle
 10
-23.6832333309
 20
-9.9125151716
 30
0.0
 40
0.1843838502614801
100
AcDbArc
 50
264.7826870092
 51
353.5960308181
  0
ARC
  5
1D6
330
195
100
AcDbEntity
  8
0
  6
Continuous
 62
     7
370
    25
100
AcDbCircle
 10
-23.6522228379
 20
-9.9547397465
 30
0.0
 40
0.149249144111347
100
AcDbArc
 50
251.3300099242
 51
318.5979710771
  0
ARC
  5
1D7
330
195
100
AcDbEntity
  8
0
  6
Continuous
 62
     7
370
    25
100
AcDbCircle
 10
-36.1369136259
 20
-26.4677672335
 30
0.0
 40
0.1817529255518692
100
AcDbArc
 50
264.9575563517
 51
322.2716446234
  0
ARC
  5
1D8
330
195
100
AcDbEntity
  8
0
  6
Continuous
 62
     7
370
    25
100
AcDbCircle
 10
-23.7
 20
-9.9330809361
 30
0.0
 40
0.2000000000001165
100
AcDbArc
 50
323.0
 51
360.0
  0
ARC
  5
1D9
330
195
100
AcDbEntity
  8
0
  6
Continuous
 62
     7
370
    25
100
AcDbCircle
 10
-42.2713042973
 20
-26.4489158392
 30
0.0
 40
0.1999768960382581
100
AcDbArc
 50
151.8884438999
 51
268.4204770441
  0
ARC
  5
1DA
330
195
100
AcDbEntity
  8
0
  6
Continuous
 62
     7
370
    25
100
AcDbCircle
 10
-23.7
 20
-0.2
 30
0.0
 40
0.2000000000000028
100
AcDbArc
 50
0.0
 51
90.0
  0
ARC
  5
1DB
330
195
100
AcDbEntity
  8
0
  6
Continuous
 62
     7
370
    25
100
AcDbCircle
 10
-30.3360392195
 20
-0.2
 30
0.0
 40
0.2000000000000032
100
AcDbArc
 50
90.0
 51
168.690067526
  0
VIEWPORT
  5
47E
330
195
100
AcDbEntity
  8
0
100
AcDbViewport
 10
0.0
 20
0.0
 30
0.0
 40
205.6
 41
156.0
 68
     1
 69
     1
 12
0.0156719179
 22
-13.4469766655
 13
0.0
 23
0.0
 14
10.0
 24
10.0
 15
10.0
 25
10.0
 16
0.0
 26
0.0
 36
1.0
 17
0.0
 27
0.0
 37
0.0
 42
50.0
 43
0.0
 44
0.0
 45
123.7450452821
 50
0.0
 51
0.0
 72
   100
 90
   557152
  1

281
     0
 71
     1
 74
     0
110
0.0
120
0.0
130
0.0
111
1.0
121
0.0
131
0.0
112
0.0
122
1.0
132
0.0
 79
     0
146
0.0
  0
ENDBLK
  5
198
330
195
100
AcDbEntity
  8
0
100
AcDbBlockEnd
  0
BLOCK
  5
1DE
330
1DC
100
AcDbEntity
  8
0
100
AcDbBlockBegin
  2
*Paper_Space3
 70
     0
 10
0.0
 20
0.0
 30
0.0
  3
*Paper_Space3
  1

  0
SPLINE
  5
1E0
330
1DC
100
AcDbEntity
  8
0
  6
Continuous
 62
     7
370
    25
100
AcDbSpline
210
0.0
220
0.0
230
1.0
 70
     8
 71
     3
 72
     9
 73
     5
 74
     0
 42
0.000000001
 43
0.00000001
 40
0.0
 40
0.0
 40
0.0
 40
0.0
 40
0.3229462937751889
 40
1.0
 40
1.0
 40
1.0
 40
1.0
 10
-45.54852596964498
 20
-42.61236010688901
 30
0.0
 10
-45.46227050931098
 20
-42.61563603863731
 30
0.0
 10
-45.19518133071817
 20
-42.6257799288489
 30
0.0
 10
-44.92926336077024
 20
-42.60623947143426
 30
0.0
 10
-44.74922261366522
 20
-42.59300953232035
 30
0.0
  0
SPLINE
  5
1E1
330
1DC
100
AcDbEntity
  8
0
  6
Continuous
 62
     7
370
    25
100
AcDbSpline
210
0.0
220
0.0
230
1.0
 70
     8
 71
     3
 72
    10
 73
     6
 74
     0
 42
0.000000001
 43
0.00000001
 40
0.0
 40
0.0
 40
0.0
 40
0.0
 40
0.2496982511062447
 40
0.7184957754420906
 40
1.0
 40
1.0
 40
1.0
 40
1.0
 10
-46.93144893394359
 20
-42.47301472505285
 30
0.0
 10
-46.82014118371178
 20
-42.49328338057324
 30
0.0
 10
-46.49985801007637
 20
-42.55160554863321
 30
0.0
 10
-46.03543097924737
 20
-42.605914059199
 30
0.0
 10
-45.68136665935621
 20
-42.61060145293358
 30
0.0
 10
-45.54852596964498
 20
-42.61236010688901
 30
0.0
  0
SPLINE
  5
1E3
330
1DC
100
AcDbEntity
  8
0
  6
Continuous
 62
     7
370
    25
100
AcDbSpline
210
0.0
220
0.0
230
1.0
 70
     8
 71
     3
 72
     9
 73
     5
 74
     0
 42
0.000000001
 43
0.00000001
 40
0.0
 40
0.0
 40
0.0
 40
0.0
 40
0.1663712256261447
 40
1.0
 40
1.0
 40
1.0
 40
1.0
 10
-49.37536207542904
 20
-41.96890690058424
 30
0.0
 10
-49.24108938839281
 20
-41.9984758661173
 30
0.0
 10
-48.43402262230455
 20
-42.17620470968242
 30
0.0
 10
-47.61456902877438
 20
-42.33807499636124
 30
0.0
 10
-46.93144893394359
 20
-42.47301472505286
 30
0.0
  0
SPLINE
  5
1E4
330
1DC
100
AcDbEntity
  8
0
  6
Continuous
 62
     7
370
    25
100
AcDbSpline
210
0.0
220
0.0
230
1.0
 70
     8
 71
     3
 72
    10
 73
     6
 74
     0
 42
0.000000001
 43
0.00000001
 40
0.0
 40
0.0
 40
0.0
 40
0.0
 40
0.1014053708272716
 40
0.5832187858893418
 40
1.0
 40
1.0
 40
1.0
 40
1.0
 10
-55.74144430416417
 20
-40.49422542459472
 30
0.0
 10
-55.53038455249282
 20
-40.54869063801706
 30
0.0
 10
-54.31650395508796
 20
-40.86193968376516
 30
0.0
 10
-52.19753537026516
 20
-41.35898888594367
 30
0.0
 10
-50.26957707736828
 20
-41.7756523475621
 30
0.0
 10
-49.37536207542904
 20
-41.96890690058424
 30
0.0
  0
SPLINE
  5
1E5
330
1DC
100
AcDbEntity
  8
0
  6
Continuous
 62
     7
370
    25
100
AcDbSpline
210
0.0
220
0.0
230
1.0
 70
     8
 71
     3
 72
    10
 73
     6
 74
     0
 42
0.000000001
 43
0.00000001
 40
0.0
 40
0.0
 40
0.0
 40
0.0
 40
0.1368597303302064
 40
0.6200168028177534
 40
1.0
 40
1.0
 40
1.0
 40
1.0
 10
-61.96586686287559
 20
-38.80491152974503
 30
0.0
 10
-61.68792425956703
 20
-38.88777133605915
 30
0.0
 10
-60.42875851479729
 20
-39.26315182284677
 30
0.0
 10
-58.35661092283345
 20
-39.83059308020366
 30
0.0
 10
-56.54081733461835
 20
-40.29137418197936
 30
0.0
 10
-55.74144430416417
 20
-40.49422542459472
 30
0.0
  0
SPLINE
  5
1E6
330
1DC
100
AcDbEntity
  8
0
  6
Continuous
 62
     7
370
    25
100
AcDbSpline
210
0.0
220
0.0
230
1.0
 70
     8
 71
     3
 72
    14
 73
    10
 74
     0
 42
0.000000001
 43
0.00000001
 40
0.0
 40
0.0
 40
0.0
 40
0.0
 40
0.0651777053962885
 40
0.2310253459893078
 40
0.3958436398494786
 40
0.5596549147496439
 40
0.7224881295609548
 40
0.8843750910992862
 40
1.0
 40
1.0
 40
1.0
 40
1.0
 10
-79.42317159550821
 20
-32.58130990714183
 30
0.0
 10
-79.06738267457365
 20
-32.7333338854978
 30
0.0
 10
-77.80627263612861
 20
-33.2721898023303
 30
0.0
 10
-75.59945979804623
 20
-34.16596865826356
 30
0.0
 10
-72.78729395957802
 20
-35.24403711168048
 30
0.0
 10
-69.93291749082846
 20
-36.27252294756804
 30
0.0
 10
-67.03815016494026
 20
-37.25004329155647
 30
0.0
 10
-64.38625577429816
 20
-38.09649364632508
 30
0.0
 10
-62.67772406396861
 20
-38.59655973581817
 30
0.0
 10
-61.96586686287559
 20
-38.80491152974503
 30
0.0
  0
SPLINE
  5
200
330
1DC
100
AcDbEntity
  8
0
  6
Continuous
 62
     7
370
    25
100
AcDbSpline
210
0.0
220
0.0
230
1.0
 70
     8
 71
     3
 72
     8
 73
     4
 74
     0
 42
0.000000001
 43
0.00000001
 40
0.0
 40
0.0
 40
0.0
 40
0.0
 40
0.0000453377850437
 40
0.0000453377850437
 40
0.0000453377850437
 40
0.0000453377850437
 10
-79.84132562702305
 20
-32.52256782775287
 30
0.0
 10
-79.85356678571398
 20
-32.52082974124997
 30
0.0
 10
-79.86571944950127
 20
-32.51748998452467
 30
0.0
 10
-79.87740246651472
 20
-32.51269433225359
 30
0.0
  0
LWPOLYLINE
  5
206
330
1DC
100
AcDbEntity
  8
0
  6
Continuous
 62
     7
370
    25
100
AcDbPolyline
 90
        9
 70
   128
 43
0.0
 10
-79.8648486684
 20
-23.7
 10
-79.8626232974
 20
-23.6609819356
 10
-79.8560327039
 20
-23.6234633135
 10
-79.8453301608
 20
-23.5888859534
 10
-79.8309269608
 20
-23.5585786438
 10
-79.8133766109
 20
-23.5337060775
 10
-79.7933535611
 20
-23.5152240935
 10
-79.771627286
 20
-23.5038429439
 10
-79.7490327142
 20
-23.5
  0
LWPOLYLINE
  5
209
330
1DC
100
AcDbEntity
  8
0
  6
Continuous
 62
     7
370
    25
100
AcDbPolyline
 90
        9
 70
   128
 43
0.0
 10
-79.8774024665
 20
-23.7
 10
-79.8751766999
 20
-23.6609819356
 10
-79.8685849351
 20
-23.6234633135
 10
-79.8578804899
 20
-23.5888859534
 10
-79.8434747301
 20
-23.5585786438
 10
-79.825921261
 20
-23.5337060775
 10
-79.8058946526
 20
-23.5152240935
 10
-79.7841645161
 20
-23.5038429439
 10
-79.7615659287
 20
-23.5
  0
LWPOLYLINE
  5
20E
330
1DC
100
AcDbEntity
  8
0
  6
Continuous
 62
     8
370
    25
100
AcDbPolyline
 90
        7
 70
   128
 43
0.0
 10
-46.9544932021
 20
-42.2768165373
 10
-46.9614710373
 20
-42.3275291222
 10
-46.9637878092
 20
-42.374807668
 10
-46.961286636
 20
-42.4154506741
 10
-46.9541368864
 20
-42.4467059701
 10
-46.9428227109
 20
-42.4664570814
 10
-46.9314173773
 20
-42.4730209388
  0
LINE
  5
212
330
1DC
100
AcDbEntity
  8
0
  6
Continuous
 62
     7
370
    25
100
AcDbLine
 10
-44.7492226137
 20
-42.5930095323
 30
0.0
 11
77.1679124443
 21
-32.5765082035
 31
0.0
  0
LINE
  5
213
330
1DC
100
AcDbEntity
  8
0
  6
Continuous
 62
     7
370
    25
100
AcDbLine
 10
-79.9615659287
 20
-23.7
 30
0.0
 11
-79.9615659287
 21
-32.3605838582
 31
0.0
  0
LINE
  5
214
330
1DC
100
AcDbEntity
  8
0
  6
Continuous
 62
     7
370
    25
100
AcDbLine
 10
79.930222093
 20
-32.342673095
 30
0.0
 11
79.930222093
 21
-23.7
 31
0.0
  0
LINE
  5
215
330
1DC
100
AcDbEntity
  8
0
  6
Continuous
 62
     7
370
    25
100
AcDbLine
 10
-44.7388274373
 20
-42.3936811325
 30
0.0
 11
-44.7388274373
 21
-36.297671501
 31
0.0
  0
LINE
  5
216
330
1DC
100
AcDbEntity
  8
0
  6
Continuous
 62
     7
370
    25
100
AcDbLine
 10
-46.9544932021
 20
-36.1528885596
 30
0.0
 11
-46.9544932021
 21
-42.2768165373
 31
0.0
  0
LINE
  5
217
330
1DC
100
AcDbEntity
  8
0
  6
Continuous
 62
     7
370
    25
100
AcDbLine
 10
-44.7388274373
 20
-36.297671501
 30
0.0
 11
79.0280796982
 21
-23.7
 31
0.0
  0
LINE
  5
218
330
1DC
100
AcDbEntity
  8
0
  6
Continuous
 62
     7
370
    25
100
AcDbLine
 10
79.0013080447
 20
-23.540272898
 30
0.0
 11
-44.7655990909
 21
-36.137944399
 31
0.0
  0
LINE
  5
219
330
1DC
100
AcDbEntity
  8
0
  6
Continuous
 62
     7
370
    25
100
AcDbLine
 10
73.5686786351
 20
-32.6737406891
 30
0.0
 11
-44.7388274373
 21
-42.3936811325
 31
0.0
  0
LINE
  5
21A
330
1DC
100
AcDbEntity
  8
0
  6
Continuous
 62
     7
370
    25
100
AcDbLine
 10
79.0280796982
 20
-23.7
 30
0.0
 11
79.930222093
 21
-23.7
 31
0.0
  0
LINE
  5
21B
330
1DC
100
AcDbEntity
  8
0
  6
Continuous
 62
     7
370
    25
100
AcDbLine
 10
79.7569937465
 20
-23.7
 30
0.0
 11
79.7569937465
 21
-32.5065647589
 31
0.0
  0
LINE
  5
21C
330
1DC
100
AcDbEntity
  8
0
  6
Continuous
 62
     7
370
    25
100
AcDbLine
 10
79.7569937465
 20
-32.5065647589
 30
0.0
 11
73.5686786351
 21
-32.6737406891
 31
0.0
  0
LINE
  5
21D
330
1DC
100
AcDbEntity
  8
0
  6
Continuous
 62
     7
370
    25
100
AcDbLine
 10
-79.7490327142
 20
-23.540272898
 30
0.0
 11
79.0013080447
 21
-23.540272898
 31
0.0
  0
LINE
  5
21E
330
1DC
100
AcDbEntity
  8
0
  6
Continuous
 62
     7
370
    25
100
AcDbLine
 10
-79.9615659287
 20
-23.7
 30
0.0
 11
-79.8648486684
 21
-23.7
 31
0.0
  0
LINE
  5
21F
330
1DC
100
AcDbEntity
  8
0
  6
Continuous
 62
     7
370
    25
100
AcDbLine
 10
-78.8372446238
 20
-32.6636206493
 30
0.0
 11
-79.841325627
 21
-32.5225678278
 31
0.0
  0
LINE
  5
220
330
1DC
100
AcDbEntity
  8
0
  6
Continuous
 62
     7
370
    25
100
AcDbLine
 10
-79.8774024665
 20
-32.5126943323
 30
0.0
 11
-79.8774024665
 21
-23.7
 31
0.0
  0
LINE
  5
221
330
1DC
100
AcDbEntity
  8
0
  6
Continuous
 62
     7
370
    25
100
AcDbLine
 10
79.0013080447
 20
-23.540272898
 30
0.0
 11
79.0013080447
 21
-23.5
 31
0.0
  0
LINE
  5
222
330
1DC
100
AcDbEntity
  8
0
  6
Continuous
 62
     7
370
    25
100
AcDbLine
 10
-79.7490327142
 20
-23.540272898
 30
0.0
 11
-79.7490327142
 21
-23.5
 31
0.0
  0
LINE
  5
223
330
1DC
100
AcDbEntity
  8
0
  6
Continuous
 62
     7
370
    25
100
AcDbLine
 10
79.730222093
 20
-23.5
 30
0.0
 11
-79.7615659287
 21
-23.5
 31
0.0
  0
ARC
  5
224
330
1DC
100
AcDbEntity
  8
0
  6
Continuous
 62
     7
370
    25
100
AcDbCircle
 10
-79.7615659287
 20
-23.7
 30
0.0
 40
0.2000000000000171
100
AcDbArc
 50
90.0
 51
180.0
  0
ARC
  5
225
330
1DC
100
AcDbEntity
  8
0
  6
Continuous
 62
     7
370
    25
100
AcDbCircle
 10
79.730222093
 20
-23.7
 30
0.0
 40
0.2000000000000028
100
AcDbArc
 50
0.0
 51
90.0
  0
ARC
  5
226
330
1DC
100
AcDbEntity
  8
0
  6
Continuous
 62
     7
370
    25
100
AcDbCircle
 10
-45.4072110705
 20
-34.0036180649
 30
0.0
 40
8.416643924888746
100
AcDbArc
 50
259.4067239148
 51
274.5547758391
  0
ARC
  5
227
330
1DC
100
AcDbEntity
  8
0
  6
Continuous
 62
     7
370
    25
100
AcDbCircle
 10
-45.4074622449
 20
-29.5040729011
 30
0.0
 40
6.826423253997908
100
AcDbArc
 50
256.9016097302
 51
275.62102195
  0
ARC
  5
228
330
1DC
100
AcDbEntity
  8
0
  6
Continuous
 62
     7
370
    25
100
AcDbCircle
 10
-46.4707819942
 20
-36.2483673657
 30
0.0
 40
0.4930443540753917
100
AcDbArc
 50
148.8277631571
 51
168.8340380139
  0
ARC
  5
229
330
1DC
100
AcDbEntity
  8
0
  6
Continuous
 62
     7
370
    25
100
AcDbCircle
 10
-45.40754737
 20
-29.8721532204
 30
0.0
 40
6.298590055521712
100
AcDbArc
 50
256.3623074711
 51
275.8497066121
  0
ARC
  5
22A
330
1DC
100
AcDbEntity
  8
0
  6
Continuous
 62
     7
370
    25
100
AcDbCircle
 10
-45.7569169642
 20
-36.3862050413
 30
0.0
 40
1.021931735773457
100
AcDbArc
 50
4.9699650532
 51
14.059695948
  0
ARC
  5
22B
330
1DC
100
AcDbEntity
  8
0
  6
Continuous
 62
     7
370
    25
100
AcDbCircle
 10
78.0099901713
 20
-23.7885335403
 30
0.0
 40
1.021931735778619
100
AcDbArc
 50
4.9699650532
 51
14.059695948
  0
ARC
  5
22C
330
1DC
100
AcDbEntity
  8
0
  6
Continuous
 62
     7
370
    25
100
AcDbCircle
 10
-14.0155656348
 20
100.3230518217
 30
0.0
 40
140.224861935776
100
AcDbArc
 50
242.0453962443
 51
256.4402266322
  0
ARC
  5
22D
330
1DC
100
AcDbEntity
  8
0
  6
Continuous
 62
     7
370
    25
100
AcDbCircle
 10
-79.5503976209
 20
-23.8061523481
 30
0.0
 40
0.3318851944829554
100
AcDbArc
 50
126.7629322765
 51
161.3463523713
  0
ARC
  5
22E
330
1DC
100
AcDbEntity
  8
0
  6
Continuous
 62
     7
370
    25
100
AcDbCircle
 10
-13.7814992381
 20
101.2303362444
 30
0.0
 40
141.3315180207928
100
AcDbArc
 50
242.122879183
 51
256.425023462
  0
ARC
  5
22F
330
1DC
100
AcDbEntity
  8
0
  6
Continuous
 62
     7
370
    25
100
AcDbCircle
 10
-15.8456400829
 20
118.5747395668
 30
0.0
 40
163.832181953029
100
AcDbArc
 50
247.3880050587
 51
259.0540768642
  0
ARC
  5
230
330
1DC
100
AcDbEntity
  8
0
  6
Continuous
 62
     7
370
    25
100
AcDbCircle
 10
78.6344715463
 20
-23.6508959018
 30
0.0
 40
0.3966592866938004
100
AcDbArc
 50
352.8888753458
 51
22.3595096632
  0
ARC
  5
231
330
1DC
100
AcDbEntity
  8
0
  6
Continuous
 62
     7
370
    25
100
AcDbCircle
 10
79.3633855946
 20
-23.6508959018
 30
0.0
 40
0.3966592866940354
100
AcDbArc
 50
352.8888753458
 51
22.3595096631
  0
ARC
  5
232
330
1DC
100
AcDbEntity
  8
0
  6
Continuous
 62
     7
370
    25
100
AcDbCircle
 10
-79.8030269978
 20
-32.3722027624
 30
0.0
 40
0.1589641203016492
100
AcDbArc
 50
175.8084355964
 51
242.1035002218
  0
ARC
  5
233
330
1DC
100
AcDbEntity
  8
0
  6
Continuous
 62
     7
370
    25
100
AcDbCircle
 10
79.780241033
 20
-32.3558393653
 30
0.0
 40
0.1505578593728912
100
AcDbArc
 50
280.7731022849
 51
5.0169187972
  0
ARC
  5
234
330
1DC
100
AcDbEntity
  8
0
  6
Continuous
 62
     7
370
    25
100
AcDbCircle
 10
79.7335778424
 20
-31.6105463132
 30
0.0
 40
0.8963243606910415
100
AcDbArc
 50
271.4969861246
 51
274.7873629354
  0
ARC
  5
235
330
1DC
100
AcDbEntity
  8
0
  6
Continuous
 62
     8
370
    25
100
AcDbCircle
 10
-45.1174780495
 20
-42.4738693819
 30
0.0
 40
0.3870483709467262
100
AcDbArc
 50
342.0722653271
 51
11.9570786554
  0
VIEWPORT
  5
480
330
1DC
100
AcDbEntity
  8
0
100
AcDbViewport
 10
0.0
 20
0.0
 30
0.0
 40
205.6
 41
156.0
 68
     1
 69
     1
 12
0.0156719179
 22
-13.4469766655
 13
0.0
 23
0.0
 14
10.0
 24
10.0
 15
10.0
 25
10.0
 16
0.0
 26
0.0
 36
1.0
 17
0.0
 27
0.0
 37
0.0
 42
50.0
 43
0.0
 44
0.0
 45
123.7450452821
 50
0.0
 51
0.0
 72
   100
 90
   557152
  1

281
     0
 71
     1
 74
     0
110
0.0
120
0.0
130
0.0
111
1.0
121
0.0
131
0.0
112
0.0
122
1.0
132
0.0
 79
     0
146
0.0
  0
ENDBLK
  5
1DF
330
1DC
100
AcDbEntity
  8
0
100
AcDbBlockEnd
  0
BLOCK
  5
238
330
236
100
AcDbEntity
  8
0
100
AcDbBlockBegin
  2
*Paper_Space4
 70
     0
 10
0.0
 20
0.0
 30
0.0
  3
*Paper_Space4
  1

  0
LWPOLYLINE
  5
252
330
236
100
AcDbEntity
  8
0
  6
Continuous
 62
     7
370
    25
100
AcDbPolyline
 90
        9
 70
   128
 43
0.0
 10
-39.7740724674
 20
34.0359079508
 10
-39.775180301
 20
34.0374561698
 10
-39.7762881222
 20
34.0390044019
 10
-39.7773959309
 20
34.040552647
 10
-39.7785037272
 20
34.0421009051
 10
-39.7796115111
 20
34.0436491763
 10
-39.7807192826
 20
34.0451974604
 10
-39.7818270417
 20
34.0467457576
 10
-39.7829347883
 20
34.0482940678
  0
LWPOLYLINE
  5
255
330
236
100
AcDbEntity
  8
0
  6
Continuous
 62
     7
370
    25
100
AcDbPolyline
 90
       25
 70
   128
 43
0.0
 10
-18.5615530061
 20
25.8182430361
 10
-18.5193883674
 20
26.1637404564
 10
-18.3957679015
 20
26.4370105427
 10
-18.1991161391
 20
26.6194303904
 10
-17.9428345726
 20
26.6985683882
 10
-17.6443883674
 20
26.6690314124
 10
-17.3241161391
 20
26.532832359
 10
-17.0038439108
 20
26.2992529685
 10
-16.7053977055
 20
25.9842112904
 10
-16.4491161391
 20
25.6091768943
 10
-16.2524643766
 20
25.1997077545
 10
-16.1288439108
 20
24.7837085164
 10
-16.086679272
 20
24.3895288404
 10
-16.1288439108
 20
24.0440314201
 10
-16.2524643766
 20
23.7707613337
 10
-16.4491161391
 20
23.5883414861
 10
-16.7053977055
 20
23.5092034883
 10
-17.0038439108
 20
23.5387404641
 10
-17.3241161391
 20
23.6749395174
 10
-17.6443883674
 20
23.9085189079
 10
-17.9428345726
 20
24.2235605861
 10
-18.1991161391
 20
24.5985949822
 10
-18.3957679015
 20
25.0080641219
 10
-18.5193883674
 20
25.4240633601
 10
-18.5615530061
 20
25.8182430361
  0
LWPOLYLINE
  5
256
330
236
100
AcDbEntity
  8
0
  6
Continuous
 62
     7
370
    25
100
AcDbPolyline
 90
       25
 70
   128
 43
0.0
 10
49.3206979878
 20
-13.3693463314
 10
49.3628626265
 20
-13.0238489111
 10
49.4864830924
 20
-12.7505788247
 10
49.6831348548
 20
-12.5681589771
 10
49.9394164213
 20
-12.4890209793
 10
50.2378626265
 20
-12.5185579551
 10
50.5581348548
 20
-12.6547570085
 10
50.8784070831
 20
-12.8883363989
 10
51.1768532884
 20
-13.2033780771
 10
51.4331348548
 20
-13.5784124732
 10
51.6297866173
 20
-13.987881613
 10
51.7534070831
 20
-14.4038808511
 10
51.7955717219
 20
-14.7980605271
 10
51.7534070831
 20
-15.1435579474
 10
51.6297866173
 20
-15.4168280338
 10
51.4331348548
 20
-15.5992478814
 10
51.1768532884
 20
-15.6783858792
 10
50.8784070831
 20
-15.6488489034
 10
50.5581348548
 20
-15.5126498501
 10
50.2378626265
 20
-15.2790704596
 10
49.9394164213
 20
-14.9640287814
 10
49.6831348548
 20
-14.5889943853
 10
49.4864830924
 20
-14.1795252455
 10
49.3628626265
 20
-13.7635260074
 10
49.3206979878
 20
-13.3693463314
  0
LWPOLYLINE
  5
263
330
236
100
AcDbEntity
  8
0
  6
Continuous
 62
     7
370
    25
100
AcDbPolyline
 90
        3
 70
   128
 43
0.0
 10
-6.1006731384
 20
11.1654436158
 10
-6.0874151017
 20
11.1556545283
 10
-6.0820027505
 20
11.1525389164
  0
LWPOLYLINE
  5
268
330
236
100
AcDbEntity
  8
0
  6
Continuous
 62
     8
370
    25
100
AcDbPolyline
 90
        7
 70
   128
 43
0.0
 10
75.6270079264
 20
-18.8686847642
 10
75.6280654011
 20
-18.8713099567
 10
75.6306494392
 20
-18.8887312853
 10
75.6266441808
 20
-18.9083068069
 10
75.6161911392
 20
-18.9293448822
 10
75.5996596395
 20
-18.9511021973
 10
75.5776337701
 20
-18.9728100262
  0
LWPOLYLINE
  5
269
330
236
100
AcDbEntity
  8
0
  6
Continuous
 62
     8
370
    25
100
AcDbPolyline
 90
        7
 70
   128
 43
0.0
 10
73.2362032948
 20
-31.0753453026
 10
73.2375835137
 20
-31.0745262164
 10
73.256781761
 20
-31.0570886669
 10
73.2700806876
 20
-31.0320694993
 10
73.2768295973
 20
-31.0006928629
 10
73.2766982765
 20
-30.9644939682
 10
73.2696931504
 20
-30.9252439712
  0
LWPOLYLINE
  5
26E
330
236
100
AcDbEntity
  8
0
  6
Continuous
 62
     8
370
    25
100
AcDbPolyline
 90
        3
 70
   128
 43
0.0
 10
72.5078472382
 20
-30.8484667695
 10
72.5211052748
 20
-30.858255857
 10
72.526517626
 20
-30.8613714689
  0
LWPOLYLINE
  5
273
330
236
100
AcDbEntity
  8
0
  6
Continuous
 62
     8
370
    25
100
AcDbPolyline
 90
        5
 70
   128
 43
0.0
 10
-39.804170643
 20
34.0135620654
 10
-39.8046070842
 20
34.0143609287
 10
-39.8035148699
 20
34.021657717
 10
-39.7961970311
 20
34.0331155358
 10
-39.7829347883
 20
34.0482940678
  0
LWPOLYLINE
  5
274
330
236
100
AcDbEntity
  8
0
  6
Continuous
 62
     8
370
    25
100
AcDbPolyline
 90
        5
 70
   128
 43
0.0
 10
-39.7952944033
 20
34.0011565147
 10
-39.7957366771
 20
34.0019635102
 10
-39.794646979
 20
34.0092638154
 10
-39.7873318707
 20
34.0207254503
 10
-39.7740724674
 20
34.0359079508
  0
LINE
  5
275
330
236
100
AcDbEntity
  8
0
  6
Continuous
 62
     7
370
    25
100
AcDbLine
 10
79.4459029403
 20
-27.4879741879
 30
0.0
 11
75.6270079264
 21
-18.8686847642
 31
0.0
  0
LINE
  5
276
330
236
100
AcDbEntity
  8
0
  6
Continuous
 62
     7
370
    25
100
AcDbLine
 10
73.2362032948
 20
-31.0753453026
 30
0.0
 11
79.444863954
 21
-27.4911617955
 31
0.0
  0
LINE
  5
277
330
236
100
AcDbEntity
  8
0
  6
Continuous
 62
     7
370
    25
100
AcDbLine
 10
72.5431397591
 20
-30.8692943584
 30
0.0
 11
73.0585598256
 21
-31.0864456754
 31
0.0
  0
LINE
  5
278
330
236
100
AcDbEntity
  8
0
  6
Continuous
 62
     7
370
    25
100
AcDbLine
 10
75.5441439145
 20
-18.7764918127
 30
0.0
 11
-32.4425220751
 21
43.5628835322
 31
0.0
  0
LINE
  5
279
330
236
100
AcDbEntity
  8
0
  6
Continuous
 62
     7
370
    25
100
AcDbLine
 10
-6.0820027505
 20
11.1525389164
 30
0.0
 11
72.526517626
 21
-30.8613714689
 31
0.0
  0
LINE
  5
27A
330
236
100
AcDbEntity
  8
0
  6
Continuous
 62
     7
370
    25
100
AcDbLine
 10
-37.4226347006
 20
40.749783298
 30
0.0
 11
-39.829245852
 21
34.1989025418
 31
0.0
  0
LINE
  5
27B
330
236
100
AcDbEntity
  8
0
  6
Continuous
 62
     7
370
    25
100
AcDbLine
 10
-32.6425058217
 20
43.5628835322
 30
0.0
 11
-37.334894154
 21
40.8540254076
 31
0.0
  0
LINE
  5
27C
330
236
100
AcDbEntity
  8
0
  6
Continuous
 62
     7
370
    25
100
AcDbLine
 10
-39.804170643
 20
34.0135620654
 30
0.0
 11
-39.7952996784
 21
34.0011638678
 31
0.0
  0
LINE
  5
27D
330
236
100
AcDbEntity
  8
0
  6
Continuous
 62
     7
370
    25
100
AcDbLine
 10
73.2696931504
 20
-30.9252439712
 30
0.0
 11
70.8852454378
 21
-21.6816681508
 31
0.0
  0
LINE
  5
27E
330
236
100
AcDbEntity
  8
0
  6
Continuous
 62
     7
370
    25
100
AcDbLine
 10
70.6103423527
 20
-21.7402005209
 30
0.0
 11
72.9947900653
 21
-30.9837763413
 31
0.0
  0
LINE
  5
27F
330
236
100
AcDbEntity
  8
0
  6
Continuous
 62
     7
370
    25
100
AcDbLine
 10
70.8852454378
 20
-21.6816681508
 30
0.0
 11
75.5776337701
 21
-18.9728100262
 31
0.0
  0
LINE
  5
280
330
236
100
AcDbEntity
  8
0
  6
Continuous
 62
     7
370
    25
100
AcDbLine
 10
75.5776337701
 20
-18.9728100262
 30
0.0
 11
79.3246230328
 21
-27.4298073525
 31
0.0
  0
LINE
  5
281
330
236
100
AcDbEntity
  8
0
  6
Continuous
 62
     7
370
    25
100
AcDbLine
 10
79.3246230328
 20
-27.4298073525
 30
0.0
 11
73.2696931504
 21
-30.9252439712
 31
0.0
  0
LINE
  5
282
330
236
100
AcDbEntity
  8
0
  6
Continuous
 62
     7
370
    25
100
AcDbLine
 10
72.9947900653
 20
-30.9837763413
 30
0.0
 11
72.4793699989
 21
-30.7666250243
 31
0.0
  0
LINE
  5
283
330
236
100
AcDbEntity
  8
0
  6
Continuous
 62
     7
370
    25
100
AcDbLine
 10
72.4793699989
 20
-30.7666250243
 30
0.0
 11
-39.7740724674
 21
34.0359079508
 31
0.0
  0
LINE
  5
284
330
236
100
AcDbEntity
  8
0
  6
Continuous
 62
     7
370
    25
100
AcDbLine
 10
-39.7829347883
 20
34.0482940678
 30
0.0
 11
-37.3763236369
 21
40.599174824
 31
0.0
  0
LINE
  5
285
330
236
100
AcDbEntity
  8
0
  6
Continuous
 62
     7
370
    25
100
AcDbLine
 10
-37.3763236369
 20
40.599174824
 30
0.0
 11
70.6103423527
 21
-21.7402005209
 31
0.0
  0
LINE
  5
286
330
236
100
AcDbEntity
  8
0
  6
Continuous
 62
     7
370
    25
100
AcDbLine
 10
70.7517637089
 20
-21.4952515474
 30
0.0
 11
-37.2349022807
 21
40.8441237975
 31
0.0
  0
LINE
  5
287
330
236
100
AcDbEntity
  8
0
  6
Continuous
 62
     7
370
    25
100
AcDbLine
 10
75.4441520412
 20
-18.7863934228
 30
0.0
 11
70.7517637089
 21
-21.4952515474
 31
0.0
  0
LINE
  5
288
330
236
100
AcDbEntity
  8
0
  6
Continuous
 62
     7
370
    25
100
AcDbLine
 10
-37.2349022807
 20
40.8441237975
 30
0.0
 11
-32.5425139484
 21
43.5529819221
 31
0.0
  0
LINE
  5
289
330
236
100
AcDbEntity
  8
0
  6
Continuous
 62
     7
370
    25
100
AcDbLine
 10
-32.5425139484
 20
43.5529819221
 30
0.0
 11
75.4441520412
 21
-18.7863934228
 31
0.0
  0
LINE
  5
28A
330
236
100
AcDbEntity
  8
0
  6
Continuous
 62
     7
370
    25
100
AcDbLine
 10
-39.7455952282
 20
33.9540662056
 30
0.0
 11
72.5078472382
 21
-30.8484667695
 31
0.0
  0
LINE
  5
28B
330
236
100
AcDbEntity
  8
0
  6
Continuous
 62
     7
370
    25
100
AcDbLine
 10
72.5078472382
 20
-30.8484667695
 30
0.0
 11
-6.1006731384
 21
11.1654436158
 31
0.0
  0
LINE
  5
28C
330
236
100
AcDbEntity
  8
0
  6
Continuous
 62
     7
370
    25
100
AcDbLine
 10
-39.7483290853
 20
33.9543966663
 30
0.0
 11
-39.7455952282
 21
33.9540662056
 31
0.0
  0
ARC
  5
28D
330
236
100
AcDbEntity
  8
0
  6
Continuous
 62
     7
370
    25
100
AcDbCircle
 10
73.1362114216
 20
-30.9021355301
 30
0.0
 40
0.1999999999999014
100
AcDbArc
 50
247.153850823
 51
299.9973117337
  0
ARC
  5
28E
330
236
100
AcDbEntity
  8
0
  6
Continuous
 62
     7
370
    25
100
AcDbCircle
 10
75.4441520412
 20
-18.9497015852
 30
0.0
 40
0.2000000000000784
100
AcDbArc
 50
23.8963976839
 51
60.0026882663
  0
ARC
  5
28F
330
236
100
AcDbEntity
  8
0
  6
Continuous
 62
     7
370
    25
100
AcDbCircle
 10
72.6207913551
 20
-30.6849842131
 30
0.0
 40
0.1999999999870636
100
AcDbArc
 50
241.8768249854
 51
247.1538508232
  0
ARC
  5
290
330
236
100
AcDbEntity
  8
0
  6
Continuous
 62
     7
370
    25
100
AcDbCircle
 10
-37.2349022807
 20
40.6808156352
 30
0.0
 40
0.1999999999998529
100
AcDbArc
 50
119.9973117336
 51
159.8280738234
  0
ARC
  5
291
330
236
100
AcDbEntity
  8
0
  6
Continuous
 62
     7
370
    25
100
AcDbCircle
 10
-32.5425139484
 20
43.3896737597
 30
0.0
 40
0.1999999999999239
100
AcDbArc
 50
60.0026882663
 51
119.9973117337
  0
ARC
  5
292
330
236
100
AcDbEntity
  8
0
  6
Continuous
 62
     7
370
    25
100
AcDbCircle
 10
-39.6415134321
 20
34.129934879
 30
0.0
 40
0.1999999999999507
100
AcDbArc
 50
159.8280738233
 51
215.5817583286
  0
ARC
  5
293
330
236
100
AcDbEntity
  8
0
  6
Continuous
 62
     7
370
    25
100
AcDbCircle
 10
-39.6326511112
 20
34.117548762
 30
0.0
 40
0.2000000000005948
100
AcDbArc
 50
215.5860138099
 51
234.6626257858
  0
ARC
  5
294
330
236
100
AcDbEntity
  8
0
  6
Continuous
 62
     7
370
    25
100
AcDbCircle
 10
73.0386159146
 20
-30.5147877965
 30
0.0
 40
0.4710318038508524
100
AcDbArc
 50
264.6613512899
 51
299.3784945384
  0
ARC
  5
295
330
236
100
AcDbEntity
  8
0
  6
Continuous
 62
     7
370
    25
100
AcDbCircle
 10
70.654168202
 20
-21.2712119761
 30
0.0
 40
0.4710318038506848
100
AcDbArc
 50
264.6613512899
 51
299.3784945384
  0
ARC
  5
296
330
236
100
AcDbEntity
  8
0
  6
Continuous
 62
     7
370
    25
100
AcDbCircle
 10
70.5818075297
 20
-21.7579443801
 30
0.0
 40
0.312877975010237
100
AcDbArc
 50
14.1102825926
 51
57.0980681614
  0
ARC
  5
297
330
236
100
AcDbEntity
  8
0
  6
Continuous
 62
     7
370
    25
100
AcDbCircle
 10
70.917385573
 20
-21.7541726914
 30
0.0
 40
0.3073609615144158
100
AcDbArc
 50
122.60547834
 51
177.3945215143
  0
ARC
  5
298
330
236
100
AcDbEntity
  8
0
  6
Continuous
 62
     7
370
    25
100
AcDbCircle
 10
-37.0692804167
 20
40.5852026535
 30
0.0
 40
0.3073609615144475
100
AcDbArc
 50
122.60547834
 51
177.3945215143
  0
ARC
  5
299
330
236
100
AcDbEntity
  8
0
  6
Continuous
 62
     7
370
    25
100
AcDbCircle
 10
75.274195862
 20
-19.0490862555
 30
0.0
 40
0.3128779750101727
100
AcDbArc
 50
14.1102825926
 51
57.0980681614
  0
ARC
  5
29A
330
236
100
AcDbEntity
  8
0
  6
Continuous
 62
     7
370
    25
100
AcDbCircle
 10
79.2309753955
 20
-27.7805858505
 30
0.0
 40
0.3630639539138957
100
AcDbArc
 50
53.7021736249
 51
75.0523121708
  0
ARC
  5
29B
330
236
100
AcDbEntity
  8
0
  6
Continuous
 62
     7
370
    25
100
AcDbCircle
 10
72.5904174786
 20
-30.7738607762
 30
0.0
 40
0.1112829674950561
100
AcDbArc
 50
176.2719297382
 51
222.0992573329
  0
ARC
  5
29C
330
236
100
AcDbEntity
  8
0
  6
Continuous
 62
     7
370
    25
100
AcDbCircle
 10
-39.6630249877
 20
34.0286721989
 30
0.0
 40
0.1112829674952656
100
AcDbArc
 50
176.2719297382
 51
222.0992573329
  0
ARC
  5
29D
330
236
100
AcDbEntity
  8
0
  6
Continuous
 62
     7
370
    25
100
AcDbCircle
 10
4.6069481508
 20
30.7895510567
 30
0.0
 40
22.35528453236216
100
AcDbArc
 50
236.5757790803
 51
241.3815242416
  0
ARC
  5
29E
330
236
100
AcDbEntity
  8
0
  6
Continuous
 62
     7
370
    25
100
AcDbCircle
 10
538.0928123758
 20
847.8696221899
 30
0.0
 40
998.1762156931802
100
AcDbArc
 50
234.6271969145
 51
236.8524399181
  0
ARC
  5
29F
330
236
100
AcDbEntity
  8
0
  6
Continuous
 62
     8
370
    25
100
AcDbCircle
 10
73.1132703745
 20
-30.9813250381
 30
0.0
 40
0.1185056646514728
100
AcDbArc
 50
181.1852542945
 51
242.5050567156
  0
ARC
  5
2A0
330
236
100
AcDbEntity
  8
0
  6
Continuous
 62
     8
370
    25
100
AcDbCircle
 10
72.5978503081
 20
-30.7641737211
 30
0.0
 40
0.1185056646514001
100
AcDbArc
 50
181.1852542945
 51
242.5050567156
  0
ARC
  5
2A1
330
236
100
AcDbEntity
  8
0
  6
Continuous
 62
     8
370
    25
100
AcDbCircle
 10
75.5027515485
 20
-18.8683261788
 30
0.0
 40
0.1007317167659042
100
AcDbArc
 50
65.7375532029
 51
125.5729052262
  0
ARC
  5
2A2
330
236
100
AcDbEntity
  8
0
  6
Continuous
 62
     8
370
    25
100
AcDbCircle
 10
-32.4839144411
 20
43.4710491661
 30
0.0
 40
0.1007317167658856
100
AcDbArc
 50
65.7375532029
 51
125.5729052262
  0
ARC
  5
2A3
330
236
100
AcDbEntity
  8
0
  6
Continuous
 62
     8
370
    25
100
AcDbCircle
 10
-37.293239248
 20
40.7648423136
 30
0.0
 40
0.0984314759352746
100
AcDbArc
 50
53.6535909779
 51
115.035950593
  0
ARC
  5
2A4
330
236
100
AcDbEntity
  8
0
  6
Continuous
 62
     8
370
    25
100
AcDbCircle
 10
-37.2853975353
 20
40.7095583739
 30
0.0
 40
0.1430107830463084
100
AcDbArc
 50
163.6638657387
 51
230.5207357743
  0
ARC
  5
2A5
330
236
100
AcDbEntity
  8
0
  6
Continuous
 62
     8
370
    25
100
AcDbCircle
 10
-39.6920086867
 20
34.1586776177
 30
0.0
 40
0.1430107830462623
100
AcDbArc
 50
163.6638657387
 51
230.5207357744
  0
ARC
  5
2A6
330
236
100
AcDbEntity
  8
0
  6
Continuous
 62
     8
370
    25
100
AcDbCircle
 10
-32.6008509157
 20
43.4737004382
 30
0.0
 40
0.0984314759353906
100
AcDbArc
 50
53.6535909779
 51
115.035950593
  0
VIEWPORT
  5
482
330
236
100
AcDbEntity
  8
0
100
AcDbViewport
 10
0.0
 20
0.0
 30
0.0
 40
205.6
 41
156.0
 68
     1
 69
     1
 12
0.0156719179
 22
-13.4469766655
 13
0.0
 23
0.0
 14
10.0
 24
10.0
 15
10.0
 25
10.0
 16
0.0
 26
0.0
 36
1.0
 17
0.0
 27
0.0
 37
0.0
 42
50.0
 43
0.0
 44
0.0
 45
123.7450452821
 50
0.0
 51
0.0
 72
   100
 90
   557152
  1

281
     0
 71
     1
 74
     0
110
0.0
120
0.0
130
0.0
111
1.0
121
0.0
131
0.0
112
0.0
122
1.0
132
0.0
 79
     0
146
0.0
  0
ENDBLK
  5
239
330
236
100
AcDbEntity
  8
0
100
AcDbBlockEnd
  0
BLOCK
  5
2A9
330
2A7
100
AcDbEntity
  8
0
100
AcDbBlockBegin
  2
*Paper_Space5
 70
     0
 10
0.0
 20
0.0
 30
0.0
  3
*Paper_Space5
  1

  0
LWPOLYLINE
  5
2C0
330
2A7
100
AcDbEntity
  8
0
  6
Continuous
 62
     7
370
    25
100
AcDbPolyline
 90
        9
 70
   128
 43
0.0
 10
-59.5641480789
 20
21.3590970848
 10
-59.5655337085
 20
21.3604275604
 10
-59.5669193225
 20
21.361758053
 10
-59.5683049211
 20
21.3630885626
 10
-59.5696905041
 20
21.3644190891
 10
-59.5710760716
 20
21.3657496326
 10
-59.5724616235
 20
21.3670801931
 10
-59.5738471599
 20
21.3684107705
 10
-59.5752326808
 20
21.3697413649
  0
LWPOLYLINE
  5
2C3
330
2A7
100
AcDbEntity
  8
0
  6
Continuous
 62
     7
370
    25
100
AcDbPolyline
 90
       25
 70
   128
 43
0.0
 10
-33.0324599136
 20
18.3768284169
 10
-32.9797222344
 20
18.7507350847
 10
-32.8251031823
 20
19.0704946886
 10
-32.5791397903
 20
19.31431614
 10
-32.2585940571
 20
19.46558341
 10
-31.8853106447
 20
19.5139878842
 10
-31.4847282007
 20
19.4562308774
 10
-31.0841457566
 20
19.2962484345
 10
-30.7108623442
 20
19.0449430943
 10
-30.390316611
 20
18.7194409007
 10
-30.144353219
 20
18.3419242901
 10
-29.989734167
 20
17.9381203957
 10
-29.9369964877
 20
17.5355477855
 10
-29.989734167
 20
17.1616411178
 10
-30.144353219
 20
16.8418815139
 10
-30.390316611
 20
16.5980600624
 10
-30.7108623442
 20
16.4467927924
 10
-31.0841457566
 20
16.3983883183
 10
-31.4847282007
 20
16.456145325
 10
-31.8853106447
 20
16.616127768
 10
-32.2585940571
 20
16.8674331081
 10
-32.5791397903
 20
17.1929353017
 10
-32.8251031823
 20
17.5704519124
 10
-32.9797222344
 20
17.9742558068
 10
-33.0324599136
 20
18.3768284169
  0
LWPOLYLINE
  5
2C4
330
2A7
100
AcDbEntity
  8
0
  6
Continuous
 62
     7
370
    25
100
AcDbPolyline
 90
       25
 70
   128
 43
0.0
 10
51.8716797674
 20
-4.6982974727
 10
51.9244174467
 20
-4.324390805
 10
52.0790364987
 20
-4.0046312011
 10
52.3249998907
 20
-3.7608097496
 10
52.6455456239
 20
-3.6095424796
 10
53.0188290364
 20
-3.5611380055
 10
53.4194114804
 20
-3.6188950122
 10
53.8199939244
 20
-3.7788774552
 10
54.1932773368
 20
-4.0301827953
 10
54.51382307
 20
-4.355684989
 10
54.759786462
 20
-4.7332015996
 10
54.9144055141
 20
-5.137005494
 10
54.9671431933
 20
-5.5395781041
 10
54.9144055141
 20
-5.9134847719
 10
54.759786462
 20
-6.2332443758
 10
54.51382307
 20
-6.4770658272
 10
54.1932773368
 20
-6.6283330973
 10
53.8199939244
 20
-6.6767375714
 10
53.4194114804
 20
-6.6189805647
 10
53.0188290364
 20
-6.4589981217
 10
52.6455456239
 20
-6.2076927816
 10
52.3249998907
 20
-5.8821905879
 10
52.0790364987
 20
-5.5046739773
 10
51.9244174467
 20
-5.1008700829
 10
51.8716797674
 20
-4.6982974727
  0
LWPOLYLINE
  5
2D0
330
2A7
100
AcDbEntity
  8
0
  6
Continuous
 62
     7
370
    25
100
AcDbPolyline
 90
        7
 70
   128
 43
0.0
 10
85.8061015339
 20
-12.9490904223
 10
85.8083803537
 20
-12.9464308436
 10
85.8106083957
 20
-12.9364085937
 10
85.8043999495
 20
-12.9250389553
 10
85.7899743709
 20
-12.9127236385
 10
85.7678413423
 20
-12.8998977663
 10
85.7387828641
 20
-12.8870145003
  0
LWPOLYLINE
  5
2DA
330
2A7
100
AcDbEntity
  8
0
  6
Continuous
 62
     8
370
    25
100
AcDbPolyline
 90
        7
 70
   128
 43
0.0
 10
81.5476360926
 20
-16.9968252648
 10
81.5433645538
 20
-16.9960034095
 10
81.5262756917
 20
-16.9878803069
 10
81.511079798
 20
-16.9724902068
 10
81.4983608425
 20
-16.9504245421
 10
81.4886076075
 20
-16.9225312839
 10
81.4821949042
 20
-16.8898823546
  0
LWPOLYLINE
  5
2DB
330
2A7
100
AcDbEntity
  8
0
  6
Continuous
 62
     8
370
    25
100
AcDbPolyline
 90
        7
 70
   128
 43
0.0
 10
80.9029712991
 20
-16.9060135133
 10
80.8986997604
 20
-16.905191658
 10
80.8816108982
 20
-16.8970685554
 10
80.8664150046
 20
-16.8816784553
 10
80.8536960491
 20
-16.8596127906
 10
80.843942814
 20
-16.8317195324
 10
80.8375301108
 20
-16.7990706031
  0
LWPOLYLINE
  5
2E1
330
2A7
100
AcDbEntity
  8
0
  6
Continuous
 62
     8
370
    25
100
AcDbPolyline
 90
        8
 70
   128
 43
0.0
 10
-56.5651490969
 20
28.8869121358
 10
-56.5959265442
 20
28.9085632855
 10
-56.621934263
 20
28.9328833849
 10
-56.6421727913
 20
28.958937826
 10
-56.6558643739
 20
28.9857253514
 10
-56.6624828508
 20
29.0122165315
 10
-56.6617738777
 20
29.0373933251
 10
-56.6574779603
 20
29.0523605283
  0
LWPOLYLINE
  5
2E2
330
2A7
100
AcDbEntity
  8
0
  6
Continuous
 62
     8
370
    25
100
AcDbPolyline
 90
        8
 70
   128
 43
0.0
 10
-59.5752326808
 20
21.3697413649
 10
-59.6060101281
 20
21.3913925147
 10
-59.6320178469
 20
21.415712614
 10
-59.6522563753
 20
21.4417670552
 10
-59.6659479578
 20
21.4685545806
 10
-59.6725664347
 20
21.4950457607
 10
-59.6718574616
 20
21.5202225542
 10
-59.6675615442
 20
21.5351897574
  0
LINE
  5
2E6
330
2A7
100
AcDbEntity
  8
0
  6
Continuous
 62
     7
370
    25
100
AcDbLine
 10
80.9029712991
 20
-16.9060135133
 30
0.0
 11
81.5476360926
 21
-16.9968252648
 31
0.0
  0
LINE
  5
2E7
330
2A7
100
AcDbEntity
  8
0
  6
Continuous
 62
     7
370
    25
100
AcDbLine
 10
81.7152296137
 20
-16.9419068278
 30
0.0
 11
85.8061015339
 21
-12.9490904223
 31
0.0
  0
LINE
  5
2E8
330
2A7
100
AcDbEntity
  8
0
  6
Continuous
 62
     7
370
    25
100
AcDbLine
 10
85.8091574738
 20
-12.9320549339
 30
0.0
 11
81.8709145885
 21
-4.6213328793
 31
0.0
  0
LINE
  5
2E9
330
2A7
100
AcDbEntity
  8
0
  6
Continuous
 62
     7
370
    25
100
AcDbLine
 10
-22.6915768955
 20
4.253929354
 30
0.0
 11
80.8908434384
 21
-16.9039227232
 31
0.0
  0
LINE
  5
2EA
330
2A7
100
AcDbEntity
  8
0
  6
Continuous
 62
     7
370
    25
100
AcDbLine
 10
81.7426333972
 20
-4.5139791331
 30
0.0
 11
-53.3223480763
 21
32.1937887389
 31
0.0
  0
LINE
  5
2EB
330
2A7
100
AcDbEntity
  8
0
  6
Continuous
 62
     7
370
    25
100
AcDbLine
 10
-56.6574779603
 20
29.0523605283
 30
0.0
 11
-59.6675615442
 21
21.5351897574
 31
0.0
  0
LINE
  5
2EC
330
2A7
100
AcDbEntity
  8
0
  6
Continuous
 62
     7
370
    25
100
AcDbLine
 10
-53.5144967464
 20
32.1439158457
 30
0.0
 11
-56.6115056508
 21
29.1211402117
 31
0.0
  0
LINE
  5
2ED
330
2A7
100
AcDbEntity
  8
0
  6
Continuous
 62
     7
370
    25
100
AcDbLine
 10
-59.620427615
 20
21.3165922476
 30
0.0
 11
-59.6093291962
 21
21.3059346995
 31
0.0
  0
LINE
  5
2EE
330
2A7
100
AcDbEntity
  8
0
  6
Continuous
 62
     7
370
    25
100
AcDbLine
 10
81.742487069
 20
-16.7875217085
 30
0.0
 11
78.7601245413
 21
-7.7184950902
 31
0.0
  0
LINE
  5
2EF
330
2A7
100
AcDbEntity
  8
0
  6
Continuous
 62
     7
370
    25
100
AcDbLine
 10
78.4998323766
 20
-7.8208557363
 30
0.0
 11
81.4821949042
 21
-16.8898823546
 31
0.0
  0
LINE
  5
2F0
330
2A7
100
AcDbEntity
  8
0
  6
Continuous
 62
     7
370
    25
100
AcDbLine
 10
81.4821949042
 20
-16.8898823546
 30
0.0
 11
80.8375301108
 21
-16.7990706031
 31
0.0
  0
LINE
  5
2F1
330
2A7
100
AcDbEntity
  8
0
  6
Continuous
 62
     7
370
    25
100
AcDbLine
 10
80.8375301108
 20
-16.7990706031
 30
0.0
 11
-59.5641480789
 21
21.3590970848
 31
0.0
  0
LINE
  5
2F2
330
2A7
100
AcDbEntity
  8
0
  6
Continuous
 62
     7
370
    25
100
AcDbLine
 10
-59.5752326808
 20
21.3697413649
 30
0.0
 11
-56.5651490969
 21
28.8869121358
 31
0.0
  0
LINE
  5
2F3
330
2A7
100
AcDbEntity
  8
0
  6
Continuous
 62
     7
370
    25
100
AcDbLine
 10
-56.5651490969
 20
28.8869121358
 30
0.0
 11
78.4998323766
 21
-7.8208557363
 31
0.0
  0
LINE
  5
2F4
330
2A7
100
AcDbEntity
  8
0
  6
Continuous
 62
     7
370
    25
100
AcDbLine
 10
78.7601245413
 20
-7.7184950902
 30
0.0
 11
81.8571334458
 21
-4.6957194562
 31
0.0
  0
LINE
  5
2F5
330
2A7
100
AcDbEntity
  8
0
  6
Continuous
 62
     7
370
    25
100
AcDbLine
 10
81.8571334458
 20
-4.6957194562
 30
0.0
 11
85.7387828641
 21
-12.8870145003
 31
0.0
  0
LINE
  5
2F6
330
2A7
100
AcDbEntity
  8
0
  6
Continuous
 62
     7
370
    25
100
AcDbLine
 10
85.7387828641
 20
-12.8870145003
 30
0.0
 11
81.742487069
 21
-16.7875217085
 31
0.0
  0
LINE
  5
2F7
330
2A7
100
AcDbEntity
  8
0
  6
Continuous
 62
     7
370
    25
100
AcDbLine
 10
78.5931714544
 20
-7.5583204748
 30
0.0
 11
-56.4718100191
 21
29.1494473973
 31
0.0
  0
LINE
  5
2F8
330
2A7
100
AcDbEntity
  8
0
  6
Continuous
 62
     7
370
    25
100
AcDbLine
 10
81.6901803589
 20
-4.5355448408
 30
0.0
 11
78.5931714544
 21
-7.5583204748
 31
0.0
  0
LINE
  5
2F9
330
2A7
100
AcDbEntity
  8
0
  6
Continuous
 62
     7
370
    25
100
AcDbLine
 10
-56.4718100191
 20
29.1494473973
 30
0.0
 11
-53.3748011146
 21
32.1722230312
 31
0.0
  0
LINE
  5
2FA
330
2A7
100
AcDbEntity
  8
0
  6
Continuous
 62
     7
370
    25
100
AcDbLine
 10
-53.3748011146
 20
32.1722230312
 30
0.0
 11
81.6901803589
 21
-4.5355448408
 31
0.0
  0
LINE
  5
2FB
330
2A7
100
AcDbEntity
  8
0
  6
Continuous
 62
     7
370
    25
100
AcDbLine
 10
-59.5453529031
 20
21.2742705208
 30
0.0
 11
80.8563252866
 21
-16.8838971671
 31
0.0
  0
LINE
  5
2FC
330
2A7
100
AcDbEntity
  8
0
  6
Continuous
 62
     7
370
    25
100
AcDbLine
 10
80.8563252866
 20
-16.8838971671
 30
0.0
 11
-22.7260950473
 21
4.27395491
 31
0.0
  0
ARC
  5
2FD
330
2A7
100
AcDbEntity
  8
0
  6
Continuous
 62
     7
370
    25
100
AcDbCircle
 10
81.575533982
 20
-16.7987805533
 30
0.0
 40
0.1999999999999841
100
AcDbArc
 50
261.9816961574
 51
314.305033619
  0
ARC
  5
2FE
330
2A7
100
AcDbEntity
  8
0
  6
Continuous
 62
     7
370
    25
100
AcDbCircle
 10
80.9308691886
 20
-16.7079688018
 30
0.0
 40
0.1999999999985713
100
AcDbArc
 50
258.455511855
 51
261.9816961574
  0
ARC
  5
2FF
330
2A7
100
AcDbEntity
  8
0
  6
Continuous
 62
     7
370
    25
100
AcDbCircle
 10
81.6901803589
 20
-4.7069783009
 30
0.0
 40
0.1999999999999678
100
AcDbArc
 50
25.3551004687
 51
74.7954868413
  0
ARC
  5
300
330
2A7
100
AcDbEntity
  8
0
  6
Continuous
 62
     7
370
    25
100
AcDbCircle
 10
-56.4718100191
 20
28.9780139371
 30
0.0
 40
0.2000000000000848
100
AcDbArc
 50
134.305033619
 51
158.1774670875
  0
ARC
  5
301
330
2A7
100
AcDbEntity
  8
0
  6
Continuous
 62
     7
370
    25
100
AcDbCircle
 10
-53.3748011146
 20
32.0007895711
 30
0.0
 40
0.2000000000000218
100
AcDbArc
 50
74.7954868413
 51
134.305033619
  0
ARC
  5
302
330
2A7
100
AcDbEntity
  8
0
  6
Continuous
 62
     7
370
    25
100
AcDbCircle
 10
-59.481893603
 20
21.4608431663
 30
0.0
 40
0.1999999999999791
100
AcDbArc
 50
158.1774670875
 51
226.158159363
  0
ARC
  5
303
330
2A7
100
AcDbEntity
  8
0
  6
Continuous
 62
     7
370
    25
100
AcDbCircle
 10
-59.4708090011
 20
21.4501988861
 30
0.0
 40
0.2000000000006059
100
AcDbArc
 50
226.1636470928
 51
241.9085391822
  0
ARC
  5
304
330
2A7
100
AcDbEntity
  8
0
  6
Continuous
 62
     7
370
    25
100
AcDbCircle
 10
81.4503920832
 20
-16.4268833077
 30
0.0
 40
0.4640900094740553
100
AcDbArc
 50
273.9294028178
 51
309.0053505728
  0
ARC
  5
305
330
2A7
100
AcDbEntity
  8
0
  6
Continuous
 62
     7
370
    25
100
AcDbCircle
 10
78.4680295556
 20
-7.3578566893
 30
0.0
 40
0.4640900094741441
100
AcDbArc
 50
273.9294028178
 51
309.0053505728
  0
ARC
  5
306
330
2A7
100
AcDbEntity
  8
0
  6
Continuous
 62
     7
370
    25
100
AcDbCircle
 10
78.5219497904
 20
-7.7996527039
 30
0.0
 40
0.2516222769399324
100
AcDbArc
 50
18.8164501951
 51
73.5576821991
  0
ARC
  5
307
330
2A7
100
AcDbEntity
  8
0
  6
Continuous
 62
     7
370
    25
100
AcDbCircle
 10
78.9088234663
 20
-7.8184041709
 30
0.0
 40
0.4089984371669956
100
AcDbArc
 50
140.5129436103
 51
180.3434369839
  0
ARC
  5
308
330
2A7
100
AcDbEntity
  8
0
  6
Continuous
 62
     7
370
    25
100
AcDbCircle
 10
-56.1561580072
 20
28.8893637011
 30
0.0
 40
0.4089984371670305
100
AcDbArc
 50
140.5129436103
 51
180.3434369839
  0
ARC
  5
309
330
2A7
100
AcDbEntity
  8
0
  6
Continuous
 62
     7
370
    25
100
AcDbCircle
 10
81.6189586949
 20
-4.7768770699
 30
0.0
 40
0.2516222769399307
100
AcDbArc
 50
18.8164501951
 51
73.5576821991
  0
ARC
  5
30A
330
2A7
100
AcDbEntity
  8
0
  6
Continuous
 62
     7
370
    25
100
AcDbCircle
 10
80.9938136074
 20
-16.8089381077
 30
0.0
 40
0.1565946964156489
100
AcDbArc
 50
176.3872264333
 51
208.5993554354
  0
ARC
  5
30B
330
2A7
100
AcDbEntity
  8
0
  6
Continuous
 62
     7
370
    25
100
AcDbCircle
 10
-59.4078645823
 20
21.3492295802
 30
0.0
 40
0.1565946964161871
100
AcDbArc
 50
176.3872264333
 51
208.5993554354
  0
ARC
  5
30C
330
2A7
100
AcDbEntity
  8
0
  6
Continuous
 62
     7
370
    25
100
AcDbCircle
 10
-22.6777715825
 20
4.3174879756
 30
0.0
 40
0.0650406415596741
100
AcDbArc
 50
222.0146789242
 51
257.745365499
  0
ARC
  5
30D
330
2A7
100
AcDbEntity
  8
0
  6
Continuous
 62
     7
370
    25
100
AcDbCircle
 10
-20.3730427574
 20
15.208935615
 30
0.0
 40
11.18528757331242
100
AcDbArc
 50
247.3813553646
 51
257.8559464187
  0
ARC
  5
30E
330
2A7
100
AcDbEntity
  8
0
  6
Continuous
 62
     7
370
    25
100
AcDbCircle
 10
117.8391769789
 20
353.3723597714
 30
0.0
 40
376.5028716030356
100
AcDbArc
 50
241.8918563523
 51
247.7579344744
  0
ARC
  5
30F
330
2A7
100
AcDbEntity
  8
0
  6
Continuous
 62
     7
370
    25
100
AcDbCircle
 10
-59.5556908597
 20
21.2940628929
 30
0.0
 40
0.0223296068932651
100
AcDbArc
 50
245.4032841891
 51
297.5789765397
  0
ARC
  5
310
330
2A7
100
AcDbEntity
  8
0
  6
Continuous
 62
     8
370
    25
100
AcDbCircle
 10
81.6058680224
 20
-16.84299972
 30
0.0
 40
0.1474536321597004
100
AcDbArc
 50
317.873669625
 51
22.1009970283
  0
ARC
  5
311
330
2A7
100
AcDbEntity
  8
0
  6
Continuous
 62
     8
370
    25
100
AcDbCircle
 10
81.7993843633
 20
-4.6465507774
 30
0.0
 40
0.0758453393726302
100
AcDbArc
 50
319.5882887555
 51
19.4200432652
  0
ARC
  5
312
330
2A7
100
AcDbEntity
  8
0
  6
Continuous
 62
     8
370
    25
100
AcDbCircle
 10
80.9046487514
 20
-16.8403641015
 30
0.0
 40
0.0650406415596444
100
AcDbArc
 50
222.0146789242
 51
257.7453654989
  0
ARC
  5
313
330
2A7
100
AcDbEntity
  8
0
  6
Continuous
 62
     8
370
    25
100
AcDbCircle
 10
81.7347668506
 20
-4.569417899
 30
0.0
 40
0.0559941007067775
100
AcDbArc
 50
81.9238653276
 51
142.7754923812
  0
ARC
  5
314
330
2A7
100
AcDbEntity
  8
0
  6
Continuous
 62
     8
370
    25
100
AcDbCircle
 10
-53.3302146229
 20
32.1383499731
 30
0.0
 40
0.0559941007068476
100
AcDbArc
 50
81.9238653276
 51
142.7754923812
  0
ARC
  5
315
330
2A7
100
AcDbEntity
  8
0
  6
Continuous
 62
     8
370
    25
100
AcDbCircle
 10
-56.5170443216
 20
29.0138264018
 30
0.0
 40
0.1429657180048002
100
AcDbArc
 50
71.5546702156
 51
131.3553518555
  0
ARC
  5
316
330
2A7
100
AcDbEntity
  8
0
  6
Continuous
 62
     8
370
    25
100
AcDbCircle
 10
-53.4200354171
 20
32.0366020358
 30
0.0
 40
0.1429657180047821
100
AcDbArc
 50
71.5546702156
 51
131.3553518555
  0
ARC
  5
317
330
2A7
100
AcDbEntity
  8
0
  6
Continuous
 62
     8
370
    25
100
AcDbCircle
 10
-59.3022318554
 20
21.0918071217
 30
0.0
 40
0.3895855416173725
100
AcDbArc
 50
134.4869514066
 51
144.7612179984
  0
ARC
  5
318
330
2A7
100
AcDbEntity
  8
0
  6
Continuous
 62
     8
370
    25
100
AcDbCircle
 10
-59.291440879
 20
21.081530408
 30
0.0
 40
0.3891175618053988
100
AcDbArc
 50
134.494033266
 51
144.780831466
  0
VIEWPORT
  5
484
330
2A7
100
AcDbEntity
  8
0
100
AcDbViewport
 10
0.0
 20
0.0
 30
0.0
 40
205.6
 41
156.0
 68
     1
 69
     1
 12
0.0156719179
 22
-13.4469766655
 13
0.0
 23
0.0
 14
10.0
 24
10.0
 15
10.0
 25
10.0
 16
0.0
 26
0.0
 36
1.0
 17
0.0
 27
0.0
 37
0.0
 42
50.0
 43
0.0
 44
0.0
 45
123.7450452821
 50
0.0
 51
0.0
 72
   100
 90
   557152
  1

281
     0
 71
     1
 74
     0
110
0.0
120
0.0
130
0.0
111
1.0
121
0.0
131
0.0
112
0.0
122
1.0
132
0.0
 79
     0
146
0.0
  0
ENDBLK
  5
2AA
330
2A7
100
AcDbEntity
  8
0
100
AcDbBlockEnd
  0
BLOCK
  5
31B
330
319
100
AcDbEntity
  8
0
100
AcDbBlockBegin
  2
*Paper_Space6
 70
     0
 10
0.0
 20
0.0
 30
0.0
  3
*Paper_Space6
  1

  0
LWPOLYLINE
  5
332
330
319
100
AcDbEntity
  8
0
  6
Continuous
 62
     7
370
    25
100
AcDbPolyline
 90
        9
 70
   128
 43
0.0
 10
-66.2898846612
 20
7.3609274965
 10
-66.2913501873
 20
7.3621613323
 10
-66.292815697
 20
7.3633951893
 10
-66.2942811902
 20
7.3646290676
 10
-66.295746667
 20
7.3658629671
 10
-66.2972121273
 20
7.3670968878
 10
-66.2986775712
 20
7.3683308298
 10
-66.3001429988
 20
7.369564793
 10
-66.3016084098
 20
7.3707987774
  0
LWPOLYLINE
  5
335
330
319
100
AcDbEntity
  8
0
  6
Continuous
 62
     7
370
    25
100
AcDbPolyline
 90
       25
 70
   128
 43
0.0
 10
-38.2283590725
 20
8.4764608975
 10
-38.1725804983
 20
8.8964630954
 10
-38.0090459935
 20
9.2737879581
 10
-37.7489001644
 20
9.5827214197
 10
-37.4098715191
 20
9.8022101753
 10
-37.0150642997
 20
9.9172964289
 10
-36.5913839657
 20
9.9201372425
 10
-36.1677036317
 20
9.8105390195
 10
-35.7728964123
 20
9.5959706975
 10
-35.4338677671
 20
9.2910547532
 10
-35.1737219379
 20
8.9165707041
 10
-35.0101874331
 20
8.4980390195
 10
-34.954408859
 20
8.063981942
 10
-35.0101874331
 20
7.643979744
 10
-35.1737219379
 20
7.2666548813
 10
-35.4338677671
 20
6.9577214198
 10
-35.7728964123
 20
6.7382326642
 10
-36.1677036317
 20
6.6231464106
 10
-36.5913839657
 20
6.6203055969
 10
-37.0150642997
 20
6.72990382
 10
-37.4098715191
 20
6.9444721419
 10
-37.7489001644
 20
7.2493880863
 10
-38.0090459935
 20
7.6238721353
 10
-38.1725804983
 20
8.0424038199
 10
-38.2283590725
 20
8.4764608975
  0
LWPOLYLINE
  5
336
330
319
100
AcDbEntity
  8
0
  6
Continuous
 62
     7
370
    25
100
AcDbPolyline
 90
       25
 70
   128
 43
0.0
 10
51.571418213
 20
-2.8372475962
 10
51.6271967872
 20
-2.4172453983
 10
51.790731292
 20
-2.0399205356
 10
52.0508771212
 20
-1.730987074
 10
52.3899057664
 20
-1.5114983184
 10
52.7847129858
 20
-1.3964120648
 10
53.2083933198
 20
-1.3935712512
 10
53.6320736538
 20
-1.5031694742
 10
54.0268808732
 20
-1.7177377962
 10
54.3659095184
 20
-2.0226537405
 10
54.6260553476
 20
-2.3971377896
 10
54.7895898524
 20
-2.8156694742
 10
54.8453684266
 20
-3.2497265517
 10
54.7895898524
 20
-3.6697287497
 10
54.6260553476
 20
-4.0470536124
 10
54.3659095184
 20
-4.3559870739
 10
54.0268808732
 20
-4.5754758295
 10
53.6320736538
 20
-4.6905620831
 10
53.2083933198
 20
-4.6934028968
 10
52.7847129858
 20
-4.5838046737
 10
52.3899057664
 20
-4.3692363518
 10
52.0508771212
 20
-4.0643204074
 10
51.790731292
 20
-3.6898363584
 10
51.6271967872
 20
-3.2713046738
 10
51.571418213
 20
-2.8372475962
  0
LWPOLYLINE
  5
342
330
319
100
AcDbEntity
  8
0
  6
Continuous
 62
     7
370
    25
100
AcDbPolyline
 90
        7
 70
   128
 43
0.0
 10
86.1966238557
 20
-8.6909362247
 10
86.2103501808
 20
-8.6744819331
 10
86.2169126594
 20
-8.6550846887
 10
86.2153686445
 20
-8.6340493819
 10
86.2057726891
 20
-8.6121192288
 10
86.1884638358
 20
-8.590069062
 10
86.1640536384
 20
-8.5686779546
  0
LWPOLYLINE
  5
34D
330
319
100
AcDbEntity
  8
0
  6
Continuous
 62
     7
370
    25
100
AcDbPolyline
 90
        9
 70
   128
 43
0.0
 10
-31.1385422829
 20
-8.3097173023
 10
-31.1418691342
 20
-8.3200282874
 10
-31.1443332692
 20
-8.3278348395
 10
-31.1458991378
 20
-8.3330243337
 10
-31.1465441495
 20
-8.3355219015
 10
-31.1462589986
 20
-8.3352915104
 10
-31.145047799
 20
-8.3323364845
 10
-31.1429280246
 20
-8.3266994556
 10
-31.1399302574
 20
-8.318461749
  0
LWPOLYLINE
  5
34F
330
319
100
AcDbEntity
  8
0
  6
Continuous
 62
     7
370
    25
100
AcDbPolyline
 90
        3
 70
   128
 43
0.0
 10
-36.6654142513
 20
-6.3495912987
 10
-34.4049063396
 20
-7.1759518435
 10
-31.1399302574
 20
-8.318461749
  0
LWPOLYLINE
  5
352
330
319
100
AcDbEntity
  8
0
  6
Continuous
 62
     8
370
    25
100
AcDbPolyline
 90
        8
 70
   128
 43
0.0
 10
82.9620395644
 20
-11.4786852766
 10
82.9560854986
 20
-11.4781155988
 10
82.9415463721
 20
-11.47133726
 10
82.9277167528
 20
-11.4571558097
 10
82.9151281052
 20
-11.436116233
 10
82.904264204
 20
-11.4090270692
 10
82.8955425429
 20
-11.3769293394
 10
82.8892982903
 20
-11.3410565416
  0
LWPOLYLINE
  5
353
330
319
100
AcDbEntity
  8
0
  6
Continuous
 62
     8
370
    25
100
AcDbPolyline
 90
        8
 70
   128
 43
0.0
 10
82.2802029061
 20
-11.4856083075
 10
82.2742488403
 20
-11.4850386297
 10
82.2597097138
 20
-11.4782602909
 10
82.2458800945
 20
-11.4640788406
 10
82.2332914469
 20
-11.4430392639
 10
82.2224275457
 20
-11.4159501
 10
82.2137058846
 20
-11.3838523703
 10
82.207461632
 20
-11.3479795725
  0
LWPOLYLINE
  5
359
330
319
100
AcDbEntity
  8
0
  6
Continuous
 62
     8
370
    25
100
AcDbPolyline
 90
        8
 70
   128
 43
0.0
 10
-63.1179611052
 20
16.1377394009
 10
-63.1510514156
 20
16.1554302784
 10
-63.1801527123
 20
16.1748378019
 10
-63.2041466487
 20
16.1952161513
 10
-63.2221111513
 20
16.215782198
 10
-63.2333558543
 20
16.2357456004
 10
-63.2374486301
 20
16.254339176
 10
-63.2352389212
 20
16.2683669383
  0
LWPOLYLINE
  5
35A
330
319
100
AcDbEntity
  8
0
  6
Continuous
 62
     8
370
    25
100
AcDbPolyline
 90
        8
 70
   128
 43
0.0
 10
-66.3016084098
 20
7.3707987774
 10
-66.3346987203
 20
7.3884896549
 10
-66.3638000169
 20
7.4078971785
 10
-66.3877939533
 20
7.4282755279
 10
-66.4057584559
 20
7.4488415746
 10
-66.4170031589
 20
7.468804977
 10
-66.4210959347
 20
7.4873985526
 10
-66.4188862258
 20
7.5014263149
  0
LINE
  5
35E
330
319
100
AcDbEntity
  8
0
  6
Continuous
 62
     7
370
    25
100
AcDbLine
 10
82.2802029061
 20
-11.4856083075
 30
0.0
 11
82.9620395644
 21
-11.4786852766
 31
0.0
  0
LINE
  5
35F
330
319
100
AcDbEntity
  8
0
  6
Continuous
 62
     7
370
    25
100
AcDbLine
 10
83.0922965339
 20
-11.4286955852
 30
0.0
 11
86.1966238557
 21
-8.6909362247
 31
0.0
  0
LINE
  5
360
330
319
100
AcDbEntity
  8
0
  6
Continuous
 62
     7
370
    25
100
AcDbLine
 10
-29.046162538
 20
-8.7330482971
 30
0.0
 11
82.2732285745
 21
-11.4855575054
 31
0.0
  0
LINE
  5
361
330
319
100
AcDbEntity
  8
0
  6
Continuous
 62
     7
370
    25
100
AcDbLine
 10
86.2117157618
 20
-8.6235005836
 30
0.0
 11
82.3354804781
 21
0.3507755602
 31
0.0
  0
LINE
  5
362
330
319
100
AcDbEntity
  8
0
  6
Continuous
 62
     7
370
    25
100
AcDbLine
 10
82.176875303
 20
0.4699028124
 30
0.0
 11
-60.6760562615
 21
18.4676804689
 31
0.0
  0
LINE
  5
363
330
319
100
AcDbEntity
  8
0
  6
Continuous
 62
     7
370
    25
100
AcDbLine
 10
-63.2352389212
 20
16.2683669383
 30
0.0
 11
-66.4188862258
 21
7.5014263149
 31
0.0
  0
LINE
  5
364
330
319
100
AcDbEntity
  8
0
  6
Continuous
 62
     7
370
    25
100
AcDbLine
 10
-60.833343827
 20
18.4192491206
 30
0.0
 11
-63.1795379926
 21
16.3501003573
 31
0.0
  0
LINE
  5
365
330
319
100
AcDbEntity
  8
0
  6
Continuous
 62
     7
370
    25
100
AcDbLine
 10
-66.359723147
 20
7.2801760341
 30
0.0
 11
-66.3479822587
 21
7.2702903218
 31
0.0
  0
LINE
  5
366
330
319
100
AcDbEntity
  8
0
  6
Continuous
 62
     7
370
    25
100
AcDbLine
 10
83.136588698
 20
-11.2386510665
 30
0.0
 11
79.9822608669
 21
-1.7576327806
 31
0.0
  0
LINE
  5
367
330
319
100
AcDbEntity
  8
0
  6
Continuous
 62
     7
370
    25
100
AcDbLine
 10
79.7349704593
 20
-1.8600382557
 30
0.0
 11
82.8892982903
 21
-11.3410565416
 31
0.0
  0
LINE
  5
368
330
319
100
AcDbEntity
  8
0
  6
Continuous
 62
     7
370
    25
100
AcDbLine
 10
82.8892982903
 20
-11.3410565416
 30
0.0
 11
82.207461632
 21
-11.3479795725
 31
0.0
  0
LINE
  5
369
330
319
100
AcDbEntity
  8
0
  6
Continuous
 62
     7
370
    25
100
AcDbLine
 10
82.207461632
 20
-11.3479795725
 30
0.0
 11
-66.2898846612
 21
7.3609274965
 31
0.0
  0
LINE
  5
36A
330
319
100
AcDbEntity
  8
0
  6
Continuous
 62
     7
370
    25
100
AcDbLine
 10
-66.3016084098
 20
7.3707987774
 30
0.0
 11
-63.1179611052
 21
16.1377394009
 31
0.0
  0
LINE
  5
36B
330
319
100
AcDbEntity
  8
0
  6
Continuous
 62
     7
370
    25
100
AcDbLine
 10
-63.1179611052
 20
16.1377394009
 30
0.0
 11
79.7349704593
 21
-1.8600382557
 31
0.0
  0
LINE
  5
36C
330
319
100
AcDbEntity
  8
0
  6
Continuous
 62
     7
370
    25
100
AcDbLine
 10
79.9822608669
 20
-1.7576327806
 30
0.0
 11
82.3284550325
 21
0.3115159827
 31
0.0
  0
LINE
  5
36D
330
319
100
AcDbEntity
  8
0
  6
Continuous
 62
     7
370
    25
100
AcDbLine
 10
82.3284550325
 20
0.3115159827
 30
0.0
 11
86.1640536384
 21
-8.5686779546
 31
0.0
  0
LINE
  5
36E
330
319
100
AcDbEntity
  8
0
  6
Continuous
 62
     7
370
    25
100
AcDbLine
 10
86.1640536384
 20
-8.5686779546
 30
0.0
 11
83.136588698
 21
-11.2386510665
 31
0.0
  0
LINE
  5
36F
330
319
100
AcDbEntity
  8
0
  6
Continuous
 62
     7
370
    25
100
AcDbLine
 10
79.8056811374
 20
-1.6091154909
 30
0.0
 11
-63.0472504271
 21
16.3886621656
 31
0.0
  0
LINE
  5
370
330
319
100
AcDbEntity
  8
0
  6
Continuous
 62
     7
370
    25
100
AcDbLine
 10
82.151875303
 20
0.4600332724
 30
0.0
 11
79.8056811374
 21
-1.6091154909
 31
0.0
  0
LINE
  5
371
330
319
100
AcDbEntity
  8
0
  6
Continuous
 62
     7
370
    25
100
AcDbLine
 10
-63.0472504271
 20
16.3886621656
 30
0.0
 11
-60.7010562615
 21
18.4578109289
 31
0.0
  0
LINE
  5
372
330
319
100
AcDbEntity
  8
0
  6
Continuous
 62
     7
370
    25
100
AcDbLine
 10
-60.7010562615
 20
18.4578109289
 30
0.0
 11
82.151875303
 21
0.4600332724
 31
0.0
  0
LINE
  5
373
330
319
100
AcDbEntity
  8
0
  6
Continuous
 62
     7
370
    25
100
AcDbLine
 10
-66.2756460416
 20
7.2600054496
 30
0.0
 11
82.2217002516
 21
-11.4489016193
 31
0.0
  0
LINE
  5
374
330
319
100
AcDbEntity
  8
0
  6
Continuous
 62
     7
370
    25
100
AcDbLine
 10
82.2217002516
 20
-11.4489016193
 30
0.0
 11
-29.0976908609
 21
-8.696392411
 31
0.0
  0
LINE
  5
375
330
319
100
AcDbEntity
  8
0
  6
Continuous
 62
     7
370
    25
100
AcDbLine
 10
-66.3275098883
 20
7.2832085413
 30
0.0
 11
-65.6919032268
 21
6.9335574609
 31
0.0
  0
ARC
  5
376
330
319
100
AcDbEntity
  8
0
  6
Continuous
 62
     7
370
    25
100
AcDbCircle
 10
82.9600089684
 20
-11.2786955852
 30
0.0
 40
0.2000000000000169
100
AcDbArc
 50
270.5817329029
 51
311.40962211
  0
ARC
  5
377
330
319
100
AcDbEntity
  8
0
  6
Continuous
 62
     7
370
    25
100
AcDbCircle
 10
82.2781723101
 20
-11.2856186161
 30
0.0
 40
0.1999999999967642
100
AcDbArc
 50
268.5835798157
 51
270.581732903
  0
ARC
  5
378
330
319
100
AcDbEntity
  8
0
  6
Continuous
 62
     7
370
    25
100
AcDbCircle
 10
82.151875303
 20
0.2714714641
 30
0.0
 40
0.2000000000000846
100
AcDbArc
 50
23.3608363427
 51
82.8192442221
  0
ARC
  5
379
330
319
100
AcDbEntity
  8
0
  6
Continuous
 62
     7
370
    25
100
AcDbCircle
 10
-63.0472504271
 20
16.2001003573
 30
0.0
 40
0.1999999999998553
100
AcDbArc
 50
131.40962211
 51
160.0418973265
  0
ARC
  5
37A
330
319
100
AcDbEntity
  8
0
  6
Continuous
 62
     7
370
    25
100
AcDbCircle
 10
-66.2308977317
 20
7.4331597339
 30
0.0
 40
0.2000000000000601
100
AcDbArc
 50
160.0418973265
 51
229.8997418439
  0
ARC
  5
37B
330
319
100
AcDbEntity
  8
0
  6
Continuous
 62
     7
370
    25
100
AcDbCircle
 10
-66.2191739831
 20
7.4232884529
 30
0.0
 40
0.1999999999999973
100
AcDbArc
 50
229.9061607147
 51
241.1082784021
  0
ARC
  5
37C
330
319
100
AcDbEntity
  8
0
  6
Continuous
 62
     7
370
    25
100
AcDbCircle
 10
-60.7010562615
 20
18.2692491206
 30
0.0
 40
0.2000000000000732
100
AcDbArc
 50
82.8192442221
 51
131.4096221099
  0
ARC
  5
37D
330
319
100
AcDbEntity
  8
0
  6
Continuous
 62
     7
370
    25
100
AcDbCircle
 10
82.7566158407
 20
-10.6708696156
 30
0.0
 40
0.6831948098527949
100
AcDbArc
 50
281.198508062
 51
303.7913796859
  0
ARC
  5
37E
330
319
100
AcDbEntity
  8
0
  6
Continuous
 62
     7
370
    25
100
AcDbCircle
 10
79.6022880097
 20
-1.1898513296
 30
0.0
 40
0.6831948098522247
100
AcDbArc
 50
281.198508062
 51
303.7913796859
  0
ARC
  5
37F
330
319
100
AcDbEntity
  8
0
  6
Continuous
 62
     7
370
    25
100
AcDbCircle
 10
79.7736971269
 20
-1.8263738391
 30
0.0
 40
0.219600015409389
100
AcDbArc
 50
18.2418357385
 51
81.62527194
  0
ARC
  5
380
330
319
100
AcDbEntity
  8
0
  6
Continuous
 62
     7
370
    25
100
AcDbCircle
 10
80.127965161
 20
-1.8353605621
 30
0.0
 40
0.3937687445099055
100
AcDbArc
 50
144.9309440897
 51
183.5931111894
  0
ARC
  5
381
330
319
100
AcDbEntity
  8
0
  6
Continuous
 62
     7
370
    25
100
AcDbCircle
 10
-62.7249664035
 20
16.1624170944
 30
0.0
 40
0.3937687445096806
100
AcDbArc
 50
144.9309440897
 51
183.5931111895
  0
ARC
  5
382
330
319
100
AcDbEntity
  8
0
  6
Continuous
 62
     7
370
    25
100
AcDbCircle
 10
82.1198912925
 20
0.2427749242
 30
0.0
 40
0.2196000154093839
100
AcDbArc
 50
18.2418357385
 51
81.62527194
  0
ARC
  5
383
330
319
100
AcDbEntity
  8
0
  6
Continuous
 62
     7
370
    25
100
AcDbCircle
 10
82.5081668605
 20
-11.3570199316
 30
0.0
 40
0.3008410918471524
100
AcDbArc
 50
178.2779865356
 51
197.7831941739
  0
ARC
  5
384
330
319
100
AcDbEntity
  8
0
  6
Continuous
 62
     7
370
    25
100
AcDbCircle
 10
-65.9891794327
 20
7.3518871374
 30
0.0
 40
0.3008410918471922
100
AcDbArc
 50
178.2779865356
 51
197.7831941739
  0
ARC
  5
385
330
319
100
AcDbEntity
  8
0
  6
Continuous
 62
     7
370
    25
100
AcDbCircle
 10
-29.0384139309
 20
-8.6676104095
 30
0.0
 40
0.0658950532546763
100
AcDbArc
 50
205.898960348
 51
263.2469582116
  0
ARC
  5
386
330
319
100
AcDbEntity
  8
0
  6
Continuous
 62
     7
370
    25
100
AcDbCircle
 10
-28.8408161026
 20
-1.7615283907
 30
0.0
 40
6.93961984705934
100
AcDbArc
 50
250.6642874649
 51
267.8786730571
  0
ARC
  5
387
330
319
100
AcDbEntity
  8
0
  6
Continuous
 62
     7
370
    25
100
AcDbCircle
 10
39.8714127099
 20
199.3754400743
 30
0.0
 40
219.4892669416905
100
AcDbArc
 50
241.0785999643
 51
251.1238490605
  0
ARC
  5
388
330
319
100
AcDbEntity
  8
0
  6
Continuous
 62
     7
370
    25
100
AcDbCircle
 10
55.2530194862
 20
-1.2402962871
 30
0.0
 40
1.916253547395801
100
AcDbArc
 50
185.2763169358
 51
257.5429272842
  0
ARC
  5
389
330
319
100
AcDbEntity
  8
0
  6
Continuous
 62
     7
370
    25
100
AcDbCircle
 10
-34.5467577993
 20
10.0734122066
 30
0.0
 40
1.91625354739578
100
AcDbArc
 50
185.2763169358
 51
257.5429272842
  0
ARC
  5
38A
330
319
100
AcDbEntity
  8
0
  6
Continuous
 62
     7
370
    25
100
AcDbCircle
 10
-66.3053577116
 20
7.2868084581
 30
0.0
 40
0.0400148047619639
100
AcDbArc
 50
254.8652758798
 51
317.9462630991
  0
ARC
  5
38B
330
319
100
AcDbEntity
  8
0
  6
Continuous
 62
     7
370
    25
100
AcDbCircle
 10
-28.7645597846
 20
-1.6273916155
 30
0.0
 40
7.100197491243703
100
AcDbArc
 50
250.4548291123
 51
267.9691299197
  0
ARC
  5
38C
330
319
100
AcDbEntity
  8
0
  6
Continuous
 62
     8
370
    25
100
AcDbCircle
 10
82.9730830437
 20
-11.300727775
 30
0.0
 40
0.1748931579677692
100
AcDbArc
 50
312.9716263945
 51
20.7898130598
  0
ARC
  5
38D
330
319
100
AcDbEntity
  8
0
  6
Continuous
 62
     8
370
    25
100
AcDbCircle
 10
82.2809771817
 20
-11.4201196178
 30
0.0
 40
0.0658950532547464
100
AcDbArc
 50
205.8989603481
 51
263.2469582116
  0
ARC
  5
38E
330
319
100
AcDbEntity
  8
0
  6
Continuous
 62
     8
370
    25
100
AcDbCircle
 10
82.2957148745
 20
0.3376331729
 30
0.0
 40
0.0418810884813236
100
AcDbArc
 50
321.420244195
 51
18.2885326148
  0
ARC
  5
38F
330
319
100
AcDbEntity
  8
0
  6
Continuous
 62
     8
370
    25
100
AcDbCircle
 10
82.1743854641
 20
0.4396118426
 30
0.0
 40
0.0303931267031455
100
AcDbArc
 50
85.3009999168
 51
137.7853893554
  0
ARC
  5
390
330
319
100
AcDbEntity
  8
0
  6
Continuous
 62
     8
370
    25
100
AcDbCircle
 10
-60.6785461003
 20
18.4373894991
 30
0.0
 40
0.0303931267030903
100
AcDbArc
 50
85.3009999168
 51
137.7853893554
  0
ARC
  5
391
330
319
100
AcDbEntity
  8
0
  6
Continuous
 62
     8
370
    25
100
AcDbCircle
 10
-63.0711190301
 20
16.2243548517
 30
0.0
 40
0.1660319355695687
100
AcDbArc
 50
81.7345715003
 51
130.7682222633
  0
ARC
  5
392
330
319
100
AcDbEntity
  8
0
  6
Continuous
 62
     8
370
    25
100
AcDbCircle
 10
-60.7249248645
 20
18.2935036149
 30
0.0
 40
0.1660319355689173
100
AcDbArc
 50
81.7345715002
 51
130.7682222634
  0
ARC
  5
393
330
319
100
AcDbEntity
  8
0
  6
Continuous
 62
     8
370
    25
100
AcDbCircle
 10
-66.1168104751
 20
7.1883458419
 30
0.0
 40
0.2596908746266774
100
AcDbArc
 50
135.3658445574
 51
159.291508716
  0
ARC
  5
394
330
319
100
AcDbEntity
  8
0
  6
Continuous
 62
     8
370
    25
100
AcDbCircle
 10
-66.1054619447
 20
7.1787976433
 30
0.0
 40
0.2591968784766067
100
AcDbArc
 50
135.3583924597
 51
159.3312196156
  0
VIEWPORT
  5
486
330
319
100
AcDbEntity
  8
0
100
AcDbViewport
 10
0.0
 20
0.0
 30
0.0
 40
205.6
 41
156.0
 68
     1
 69
     1
 12
0.0156719179
 22
-13.4469766655
 13
0.0
 23
0.0
 14
10.0
 24
10.0
 15
10.0
 25
10.0
 16
0.0
 26
0.0
 36
1.0
 17
0.0
 27
0.0
 37
0.0
 42
50.0
 43
0.0
 44
0.0
 45
123.7450452821
 50
0.0
 51
0.0
 72
   100
 90
   557152
  1

281
     0
 71
     1
 74
     0
110
0.0
120
0.0
130
0.0
111
1.0
121
0.0
131
0.0
112
0.0
122
1.0
132
0.0
 79
     0
146
0.0
  0
ENDBLK
  5
31C
330
319
100
AcDbEntity
  8
0
100
AcDbBlockEnd
  0
BLOCK
  5
397
330
395
100
AcDbEntity
  8
0
100
AcDbBlockBegin
  2
*Paper_Space7
 70
     0
 10
0.0
 20
0.0
 30
0.0
  3
*Paper_Space7
  1

  0
LWPOLYLINE
  5
3AD
330
395
100
AcDbEntity
  8
0
  6
Continuous
 62
     7
370
    25
100
AcDbPolyline
 90
        9
 70
   128
 43
0.0
 10
-43.2038910716
 20
5.1713046913
 10
-43.2050791424
 20
5.1725975287
 10
-43.2062672007
 20
5.1738903878
 10
-43.2074552466
 20
5.1751832686
 10
-43.20864328
 20
5.1764761713
 10
-43.2098313009
 20
5.1777690957
 10
-43.2110193094
 20
5.1790620418
 10
-43.2122073054
 20
5.1803550097
 10
-43.2133952889
 20
5.1816479993
  0
LWPOLYLINE
  5
3B0
330
395
100
AcDbEntity
  8
0
  6
Continuous
 62
     7
370
    25
100
AcDbPolyline
 90
       25
 70
   128
 43
0.0
 10
-21.0568712512
 20
5.9890770481
 10
-21.0230124428
 20
6.4225367423
 10
-20.9029669277
 20
6.8105964881
 10
-20.7049156093
 20
7.1268106551
 10
-20.4423553577
 20
7.3496297705
 10
-20.1331792201
 20
7.4638690796
 10
-19.7984570395
 20
7.4617433624
 10
-19.4609995791
 20
7.343397483
 10
-19.1438040074
 20
7.1168965175
 10
-18.8684866782
 20
6.7976761324
 10
-18.6538100127
 20
6.4074906694
 10
-18.5144038707
 20
5.972930623
 10
-18.4597685506
 20
5.5236105422
 10
-18.493627359
 20
5.0901508479
 10
-18.6136728741
 20
4.7020911021
 10
-18.8117241925
 20
4.3858769351
 10
-19.0742844441
 20
4.1630578198
 10
-19.3834605816
 20
4.0488185107
 10
-19.7181827623
 20
4.0509442279
 10
-20.0556402226
 20
4.1692901073
 10
-20.3728357944
 20
4.3957910728
 10
-20.6481531235
 20
4.7150114579
 10
-20.8628297891
 20
5.1051969209
 10
-21.002235931
 20
5.5397569673
 10
-21.0568712512
 20
5.9890770481
  0
LWPOLYLINE
  5
3B1
330
395
100
AcDbEntity
  8
0
  6
Continuous
 62
     7
370
    25
100
AcDbPolyline
 90
       25
 70
   128
 43
0.0
 10
50.1779456798
 20
-6.7780042572
 10
50.2118044882
 20
-6.344544563
 10
50.3318500033
 20
-5.9564848172
 10
50.5299013217
 20
-5.6402706502
 10
50.7924615733
 20
-5.4174515348
 10
51.1016377108
 20
-5.3032122257
 10
51.4363598915
 20
-5.3053379429
 10
51.7738173518
 20
-5.4236838223
 10
52.0910129236
 20
-5.6501847878
 10
52.3663302527
 20
-5.9694051729
 10
52.5810069182
 20
-6.3595906359
 10
52.7204130602
 20
-6.7941506823
 10
52.7750483804
 20
-7.2434707631
 10
52.741189572
 20
-7.6769304574
 10
52.6211440568
 20
-8.0649902032
 10
52.4230927385
 20
-8.3812043702
 10
52.1605324869
 20
-8.6040234855
 10
51.8513563493
 20
-8.7182627946
 10
51.5166341687
 20
-8.7161370774
 10
51.1791767083
 20
-8.597791198
 10
50.8619811366
 20
-8.3712902325
 10
50.5866638074
 20
-8.0520698474
 10
50.3719871419
 20
-7.6618843844
 10
50.2325809999
 20
-7.227324338
 10
50.1779456798
 20
-6.7780042572
  0
LWPOLYLINE
  5
3B7
330
395
100
AcDbEntity
  8
0
  6
Continuous
 62
     7
370
    25
100
AcDbPolyline
 90
        9
 70
   128
 43
0.0
 10
81.2266402619
 20
-14.5051955605
 10
81.2459593021
 20
-14.4934671507
 10
81.2566978054
 20
-14.4769840927
 10
81.2584763607
 20
-14.4563287634
 10
81.2512321285
 20
-14.4322309536
 10
81.2352210607
 20
-14.4055420832
 10
81.2110088579
 20
-14.3772051193
 10
81.1794509818
 20
-14.3482212588
 10
81.1416624301
 20
-14.3196145551
  0
LWPOLYLINE
  5
3C4
330
395
100
AcDbEntity
  8
0
  6
Continuous
 62
     7
370
    25
100
AcDbPolyline
 90
        5
 70
   128
 43
0.0
 10
-43.1791559097
 20
5.0399174978
 10
-43.1798196199
 20
5.0408016511
 10
-43.1798382128
 20
5.0448296374
 10
-43.177936822
 20
5.0516973055
 10
-43.1741486526
 20
5.0612847211
  0
LWPOLYLINE
  5
3C5
330
395
100
AcDbEntity
  8
0
  6
Continuous
 62
     7
370
    25
100
AcDbPolyline
 90
        9
 70
   128
 43
0.0
 10
-10.0715949237
 20
-13.1630068594
 10
-10.0681923446
 20
-13.1756197106
 10
-10.063334807
 20
-13.1859420854
 10
-10.0570923905
 20
-13.1938250631
 10
-10.0495551539
 20
-13.1991549165
 10
-10.0408318369
 20
-13.201854752
 10
-10.0310482902
 20
-13.201885619
 10
-10.0203456607
 20
-13.1992470725
 10
-10.0088783548
 20
-13.1939771784
  0
LWPOLYLINE
  5
3C8
330
395
100
AcDbEntity
  8
0
  6
Continuous
 62
     8
370
    25
100
AcDbPolyline
 90
        9
 70
   128
 43
0.0
 10
75.3182013702
 20
-16.0989343698
 10
75.3221434495
 20
-16.0977872554
 10
75.3510027727
 20
-16.0836420223
 10
75.3757095204
 20
-16.0607967809
 10
75.3950548295
 20
-16.0303693138
 10
75.4080921639
 20
-15.9938483899
 10
75.4141836269
 20
-15.953020922
 10
75.4130311727
 20
-15.9098845348
 10
75.404691189
 20
-15.8665498255
  0
LWPOLYLINE
  5
3CD
330
395
100
AcDbEntity
  8
0
  6
Continuous
 62
     8
370
    25
100
AcDbPolyline
 90
        6
 70
   128
 43
0.0
 10
77.17312417
 20
-4.7915490324
 10
77.1732965384
 20
-4.792078495
 10
77.171143087
 20
-4.7981487331
 10
77.1625515941
 20
-4.8067387931
 10
77.147825613
 20
-4.8175451724
 10
77.1274854398
 20
-4.8301860618
  0
LWPOLYLINE
  5
3CE
330
395
100
AcDbEntity
  8
0
  6
Continuous
 62
     8
370
    25
100
AcDbPolyline
 90
        3
 70
   128
 43
0.0
 10
77.0242095372
 20
-4.6726042616
 10
77.0072977742
 20
-4.6712573859
 10
76.98433957
 20
-4.6745646536
  0
LWPOLYLINE
  5
3CF
330
395
100
AcDbEntity
  8
0
  6
Continuous
 62
     8
370
    25
100
AcDbPolyline
 90
        3
 70
   128
 43
0.0
 10
-36.2956976569
 20
15.637189895
 10
-36.3126094199
 20
15.6385367708
 10
-36.3355676241
 20
15.635229503
  0
LWPOLYLINE
  5
3D1
330
395
100
AcDbEntity
  8
0
  6
Continuous
 62
     8
370
    25
100
AcDbPolyline
 90
        6
 70
   128
 43
0.0
 10
-40.9109554697
 20
14.2053676053
 10
-40.9360035289
 20
14.2235206872
 10
-40.9549396531
 20
14.2423646441
 10
-40.9670361375
 20
14.2611753133
 10
-40.971828121
 20
14.2792298115
 10
-40.9707516848
 20
14.2909450784
  0
LWPOLYLINE
  5
3D2
330
395
100
AcDbEntity
  8
0
  6
Continuous
 62
     8
370
    25
100
AcDbPolyline
 90
        6
 70
   128
 43
0.0
 10
-43.2133952889
 20
5.1816479993
 10
-43.2384433482
 20
5.1998010812
 10
-43.2573794723
 20
5.2186450381
 10
-43.2694759567
 20
5.2374557074
 10
-43.2742679403
 20
5.2555102055
 10
-43.273191504
 20
5.2672254725
  0
LINE
  5
3D6
330
395
100
AcDbEntity
  8
0
  6
Continuous
 62
     7
370
    25
100
AcDbLine
 10
74.7271471335
 20
-16.1048402555
 30
0.0
 11
75.2657645791
 21
-16.1058308868
 31
0.0
  0
LINE
  5
3D7
330
395
100
AcDbEntity
  8
0
  6
Continuous
 62
     7
370
    25
100
AcDbLine
 10
75.3182013702
 20
-16.0989343698
 30
0.0
 11
81.2171966509
 21
-14.5083104192
 31
0.0
  0
LINE
  5
3D8
330
395
100
AcDbEntity
  8
0
  6
Continuous
 62
     7
370
    25
100
AcDbLine
 10
-8.2934948834
 20
-13.6607263852
 30
0.0
 11
74.7216293751
 21
-16.1047539743
 31
0.0
  0
LINE
  5
3D9
330
395
100
AcDbEntity
  8
0
  6
Continuous
 62
     7
370
    25
100
AcDbLine
 10
81.2525276452
 20
-14.4351715398
 30
0.0
 11
77.17312417
 21
-4.7915490324
 31
0.0
  0
LINE
  5
3DA
330
395
100
AcDbEntity
  8
0
  6
Continuous
 62
     7
370
    25
100
AcDbLine
 10
77.0242095372
 20
-4.6726042616
 30
0.0
 11
-36.2956976569
 21
15.637189895
 31
0.0
  0
LINE
  5
3DB
330
395
100
AcDbEntity
  8
0
  6
Continuous
 62
     7
370
    25
100
AcDbLine
 10
-40.9707516848
 20
14.2909450784
 30
0.0
 11
-43.273191504
 21
5.2672254725
 31
0.0
  0
LINE
  5
3DC
330
395
100
AcDbEntity
  8
0
  6
Continuous
 62
     7
370
    25
100
AcDbLine
 10
-36.3830494719
 20
15.6334298401
 30
0.0
 11
-40.8290294317
 21
14.4346015869
 31
0.0
  0
LINE
  5
3DD
330
395
100
AcDbEntity
  8
0
  6
Continuous
 62
     7
370
    25
100
AcDbLine
 10
-43.2266763227
 20
5.0824652243
 30
0.0
 11
-43.2171573703
 21
5.0721058803
 31
0.0
  0
LINE
  5
3DE
330
395
100
AcDbEntity
  8
0
  6
Continuous
 62
     7
370
    25
100
AcDbLine
 10
75.404691189
 20
-15.8665498255
 30
0.0
 11
72.6815054801
 21
-6.029014315
 31
0.0
  0
LINE
  5
3DF
330
395
100
AcDbEntity
  8
0
  6
Continuous
 62
     7
370
    25
100
AcDbLine
 10
72.4089517243
 20
-6.1044265514
 30
0.0
 11
75.1321374333
 21
-15.9419620619
 31
0.0
  0
LINE
  5
3E0
330
395
100
AcDbEntity
  8
0
  6
Continuous
 62
     7
370
    25
100
AcDbLine
 10
75.1321374333
 20
-15.9419620619
 30
0.0
 11
74.5935199877
 21
-15.9409714307
 31
0.0
  0
LINE
  5
3E1
330
395
100
AcDbEntity
  8
0
  6
Continuous
 62
     7
370
    25
100
AcDbLine
 10
74.5935199877
 20
-15.9409714307
 30
0.0
 11
-43.2038910716
 21
5.1713046913
 31
0.0
  0
LINE
  5
3E2
330
395
100
AcDbEntity
  8
0
  6
Continuous
 62
     7
370
    25
100
AcDbLine
 10
-43.2133952889
 20
5.1816479993
 30
0.0
 11
-40.9109554697
 21
14.2053676053
 31
0.0
  0
LINE
  5
3E3
330
395
100
AcDbEntity
  8
0
  6
Continuous
 62
     7
370
    25
100
AcDbLine
 10
-40.9109554697
 20
14.2053676053
 30
0.0
 11
72.4089517243
 21
-6.1044265514
 31
0.0
  0
LINE
  5
3E4
330
395
100
AcDbEntity
  8
0
  6
Continuous
 62
     7
370
    25
100
AcDbLine
 10
72.6815054801
 20
-6.029014315
 30
0.0
 11
77.1274854398
 21
-4.8301860618
 31
0.0
  0
LINE
  5
3E5
330
395
100
AcDbEntity
  8
0
  6
Continuous
 62
     7
370
    25
100
AcDbLine
 10
77.1274854398
 20
-4.8301860618
 30
0.0
 11
81.1416624301
 21
-14.3196145551
 31
0.0
  0
LINE
  5
3E6
330
395
100
AcDbEntity
  8
0
  6
Continuous
 62
     7
370
    25
100
AcDbLine
 10
81.1416624301
 20
-14.3196145551
 30
0.0
 11
75.404691189
 21
-15.8665498255
 31
0.0
  0
LINE
  5
3E7
330
395
100
AcDbEntity
  8
0
  6
Continuous
 62
     7
370
    25
100
AcDbLine
 10
72.5383596102
 20
-5.8733929068
 30
0.0
 11
-40.7815475838
 21
14.4364012499
 31
0.0
  0
LINE
  5
3E8
330
395
100
AcDbEntity
  8
0
  6
Continuous
 62
     7
370
    25
100
AcDbLine
 10
76.98433957
 20
-4.6745646536
 30
0.0
 11
72.5383596102
 21
-5.8733929068
 31
0.0
  0
LINE
  5
3E9
330
395
100
AcDbEntity
  8
0
  6
Continuous
 62
     7
370
    25
100
AcDbLine
 10
-40.7815475838
 20
14.4364012499
 30
0.0
 11
-36.3355676241
 21
15.635229503
 31
0.0
  0
LINE
  5
3EA
330
395
100
AcDbEntity
  8
0
  6
Continuous
 62
     7
370
    25
100
AcDbLine
 10
-36.3355676241
 20
15.635229503
 30
0.0
 11
76.98433957
 21
-4.6745646536
 31
0.0
  0
LINE
  5
3EB
330
395
100
AcDbEntity
  8
0
  6
Continuous
 62
     7
370
    25
100
AcDbLine
 10
-43.1741486526
 20
5.0612847211
 30
0.0
 11
74.6232624066
 21
-16.0509914009
 31
0.0
  0
LINE
  5
3EC
330
395
100
AcDbEntity
  8
0
  6
Continuous
 62
     7
370
    25
100
AcDbLine
 10
74.6232624066
 20
-16.0509914009
 30
0.0
 11
-8.3918618519
 21
-13.6069638117
 31
0.0
  0
ARC
  5
3ED
330
395
100
AcDbEntity
  8
0
  6
Continuous
 62
     7
370
    25
100
AcDbCircle
 10
75.2661324207
 20
-15.9058312251
 30
0.0
 40
0.2000000000001236
100
AcDbArc
 50
269.8946210789
 51
285.0905191974
  0
ARC
  5
3EE
330
395
100
AcDbEntity
  8
0
  6
Continuous
 62
     7
370
    25
100
AcDbCircle
 10
76.9889266716
 20
-4.8694674613
 30
0.0
 40
0.2000000000000049
100
AcDbArc
 50
22.9291238421
 51
79.8390262129
  0
ARC
  5
3EF
330
395
100
AcDbEntity
  8
0
  6
Continuous
 62
     7
370
    25
100
AcDbCircle
 10
-40.7769604823
 20
14.2414984422
 30
0.0
 40
0.1999999999999715
100
AcDbArc
 50
105.0905191974
 51
165.6861536929
  0
ARC
  5
3F0
330
395
100
AcDbEntity
  8
0
  6
Continuous
 62
     7
370
    25
100
AcDbCircle
 10
-43.0794003015
 20
5.2177788362
 30
0.0
 40
0.1999999999999426
100
AcDbArc
 50
165.6861536929
 51
222.576037719
  0
ARC
  5
3F1
330
395
100
AcDbEntity
  8
0
  6
Continuous
 62
     7
370
    25
100
AcDbCircle
 10
-43.0698960841
 20
5.2074355282
 30
0.0
 40
0.2000000000005634
100
AcDbArc
 50
222.5822766141
 51
236.8865137139
  0
ARC
  5
3F2
330
395
100
AcDbEntity
  8
0
  6
Continuous
 62
     7
370
    25
100
AcDbCircle
 10
-36.3309805225
 20
15.4403266954
 30
0.0
 40
0.2000000000001165
100
AcDbArc
 50
79.8390262129
 51
105.0905191974
  0
ARC
  5
3F3
330
395
100
AcDbEntity
  8
0
  6
Continuous
 62
     7
370
    25
100
AcDbCircle
 10
82.1320628231
 20
-40.7107498107
 30
0.0
 40
25.73891610002229
100
AcDbArc
 50
105.1513481819
 51
105.7808616829
  0
ARC
  5
3F4
330
395
100
AcDbEntity
  8
0
  6
Continuous
 62
     7
370
    25
100
AcDbCircle
 10
79.4088771141
 20
-30.8732143001
 30
0.0
 40
25.73891610004149
100
AcDbArc
 50
105.1513481819
 51
105.7808616829
  0
ARC
  5
3F5
330
395
100
AcDbEntity
  8
0
  6
Continuous
 62
     7
370
    25
100
AcDbCircle
 10
72.4806715729
 20
-6.0701022543
 30
0.0
 40
0.2049938463610473
100
AcDbArc
 50
11.5623971435
 51
73.6554146024
  0
ARC
  5
3F6
330
395
100
AcDbEntity
  8
0
  6
Continuous
 62
     7
370
    25
100
AcDbCircle
 10
72.6374365318
 20
-6.0806476033
 30
0.0
 40
0.2297188403535085
100
AcDbArc
 50
115.5498646236
 51
185.9415163706
  0
ARC
  5
3F7
330
395
100
AcDbEntity
  8
0
  6
Continuous
 62
     7
370
    25
100
AcDbCircle
 10
-40.6824706623
 20
14.2291465533
 30
0.0
 40
0.2297188403535535
100
AcDbArc
 50
115.5498646236
 51
185.9415163706
  0
ARC
  5
3F8
330
395
100
AcDbEntity
  8
0
  6
Continuous
 62
     7
370
    25
100
AcDbCircle
 10
76.9266515326
 20
-4.8712740011
 30
0.0
 40
0.2049938463611307
100
AcDbArc
 50
11.5623971435
 51
73.6554146024
  0
ARC
  5
3F9
330
395
100
AcDbEntity
  8
0
  6
Continuous
 62
     7
370
    25
100
AcDbCircle
 10
74.8111756529
 20
-15.9411613661
 30
0.0
 40
0.2176557480615071
100
AcDbArc
 50
179.9500013363
 51
210.305091005
  0
ARC
  5
3FA
330
395
100
AcDbEntity
  8
0
  6
Continuous
 62
     7
370
    25
100
AcDbCircle
 10
-42.9862354064
 20
5.1711147559
 30
0.0
 40
0.2176557480622484
100
AcDbArc
 50
179.9500013363
 51
210.3050910049
  0
ARC
  5
3FB
330
395
100
AcDbEntity
  8
0
  6
Continuous
 62
     7
370
    25
100
AcDbCircle
 10
-8.0698036049
 20
-8.9887854915
 30
0.0
 40
4.629394400154205
100
AcDbArc
 50
244.3794678909
 51
266.0108183812
  0
ARC
  5
3FC
330
395
100
AcDbEntity
  8
0
  6
Continuous
 62
     7
370
    25
100
AcDbCircle
 10
88.4524315135
 20
204.9716072992
 30
0.0
 40
239.3526554678269
100
AcDbArc
 50
236.6379685079
 51
245.6929156806
  0
ARC
  5
3FD
330
395
100
AcDbEntity
  8
0
  6
Continuous
 62
     7
370
    25
100
AcDbCircle
 10
71.4413790583
 20
169.9851231319
 30
0.0
 40
200.4712628362209
100
AcDbArc
 50
244.1268141808
 51
246.0277630449
  0
ARC
  5
3FE
330
395
100
AcDbEntity
  8
0
  6
Continuous
 62
     7
370
    25
100
AcDbCircle
 10
-7.9421403653
 20
-8.9296079262
 30
0.0
 40
4.738802700753895
100
AcDbArc
 50
244.1427273391
 51
266.1151883667
  0
ARC
  5
3FF
330
395
100
AcDbEntity
  8
0
  6
Continuous
 62
     8
370
    25
100
AcDbCircle
 10
75.2918171747
 20
-15.9481685801
 30
0.0
 40
0.1598003150336792
100
AcDbArc
 50
177.7741172709
 51
260.6170604889
  0
ARC
  5
400
330
395
100
AcDbEntity
  8
0
  6
Continuous
 62
     8
370
    25
100
AcDbCircle
 10
74.7531997291
 20
-15.9471779489
 30
0.0
 40
0.1598003150336529
100
AcDbArc
 50
177.7741172709
 51
260.6170604889
  0
ARC
  5
401
330
395
100
AcDbEntity
  8
0
  6
Continuous
 62
     8
370
    25
100
AcDbCircle
 10
74.7283364078
 20
-15.9756123164
 30
0.0
 40
0.1293157071224009
100
AcDbArc
 50
215.6552956012
 51
267.0269878708
  0
ARC
  5
402
330
395
100
AcDbEntity
  8
0
  6
Continuous
 62
     8
370
    25
100
AcDbCircle
 10
-8.2867878507
 20
-13.5315847272
 30
0.0
 40
0.1293157071223637
100
AcDbArc
 50
215.6552956012
 51
267.0269878708
  0
ARC
  5
403
330
395
100
AcDbEntity
  8
0
  6
Continuous
 62
     8
370
    25
100
AcDbCircle
 10
-40.801323374
 20
14.3308863428
 30
0.0
 40
0.1073521191227442
100
AcDbArc
 50
79.3846750222
 51
104.9565106102
  0
ARC
  5
404
330
395
100
AcDbEntity
  8
0
  6
Continuous
 62
     8
370
    25
100
AcDbCircle
 10
-36.3553434143
 20
15.529714596
 30
0.0
 40
0.1073521191229365
100
AcDbArc
 50
79.3846750222
 51
104.9565106102
  0
ARC
  5
405
330
395
100
AcDbEntity
  8
0
  6
Continuous
 62
     8
370
    25
100
AcDbCircle
 10
-43.1439866941
 20
5.1218732829
 30
0.0
 40
0.0916000532879126
100
AcDbArc
 50
139.2649525942
 51
205.4814420699
  0
ARC
  5
406
330
395
100
AcDbEntity
  8
0
  6
Continuous
 62
     8
370
    25
100
AcDbCircle
 10
-43.1344313708
 20
5.1115207296
 30
0.0
 40
0.0916448149181776
100
AcDbArc
 50
139.2814228997
 51
205.4571745272
  0
VIEWPORT
  5
488
330
395
100
AcDbEntity
  8
0
100
AcDbViewport
 10
0.0
 20
0.0
 30
0.0
 40
205.6
 41
156.0
 68
     1
 69
     1
 12
0.0156719179
 22
-13.4469766655
 13
0.0
 23
0.0
 14
10.0
 24
10.0
 15
10.0
 25
10.0
 16
0.0
 26
0.0
 36
1.0
 17
0.0
 27
0.0
 37
0.0
 42
50.0
 43
0.0
 44
0.0
 45
123.7450452821
 50
0.0
 51
0.0
 72
   100
 90
   557152
  1

281
     0
 71
     1
 74
     0
110
0.0
120
0.0
130
0.0
111
1.0
121
0.0
131
0.0
112
0.0
122
1.0
132
0.0
 79
     0
146
0.0
  0
ENDBLK
  5
398
330
395
100
AcDbEntity
  8
0
100
AcDbBlockEnd
  0
BLOCK
  5
409
330
407
100
AcDbEntity
  8
0
100
AcDbBlockBegin
  2
*Paper_Space8
 70
     0
 10
0.0
 20
0.0
 30
0.0
  3
*Paper_Space8
  1

  0
LWPOLYLINE
  5
418
330
407
100
AcDbEntity
  8
0
  6
Continuous
 62
     7
370
    25
100
AcDbPolyline
 90
        9
 70
   128
 43
0.0
 10
37.3090681296
 20
-26.8834195409
 10
37.3079705412
 20
-26.8842357245
 10
37.3068729412
 20
-26.8850518809
 10
37.3057753296
 20
-26.8858680101
 10
37.3046777064
 20
-26.8866841121
 10
37.3035800717
 20
-26.8875001869
 10
37.3024824254
 20
-26.8883162346
 10
37.3013847675
 20
-26.889132255
 10
37.3002870981
 20
-26.8899482482
  0
SPLINE
  5
41D
330
407
100
AcDbEntity
  8
0
  6
Continuous
 62
     7
370
    25
100
AcDbSpline
210
0.0
220
0.0
230
1.0
 70
     8
 71
     3
 72
     8
 73
     4
 74
     0
 42
0.000000001
 43
0.00000001
 40
0.0
 40
0.0
 40
0.0
 40
0.0
 40
0.0000453377850437
 40
0.0000453377850437
 40
0.0000453377850437
 40
0.0000453377850437
 10
30.86274430610517
 20
-28.1062972694774
 30
0.0
 10
30.87257153075112
 20
-28.09969931769361
 30
0.0
 10
30.88350262464282
 20
-28.0929253683111
 30
0.0
 10
30.89516487986856
 20
-28.08619391522883
 30
0.0
  0
LWPOLYLINE
  5
423
330
407
100
AcDbEntity
  8
0
  6
Continuous
 62
     7
370
    25
100
AcDbPolyline
 90
        9
 70
   128
 43
0.0
 10
0.8943725198
 20
-39.8819238314
 10
0.8624317236
 20
-39.8808921288
 10
0.8300357761
 20
-39.8666433086
 10
0.7993783923
 20
-39.8401422397
 10
0.7725355589
 20
-39.8031834612
 10
0.7513249575
 20
-39.7582696632
 10
0.7371828792
 20
-39.7084422158
 10
0.7310669652
 20
-39.6570752203
 10
0.7333913587
 20
-39.6076470296
  0
SPLINE
  5
424
330
407
100
AcDbEntity
  8
0
  6
Continuous
 62
     7
370
    25
100
AcDbSpline
210
0.0
220
0.0
230
1.0
 70
     8
 71
     3
 72
    18
 73
    14
 74
     0
 42
0.000000001
 43
0.00000001
 40
0.0
 40
0.0
 40
0.0
 40
0.0
 40
0.4999999999999984
 40
0.4999999999999984
 40
0.750000000000009
 40
0.750000000000009
 40
0.8750000000000159
 40
0.8750000000000159
 40
0.9375000000000158
 40
0.9375000000000158
 40
0.9687500000000079
 40
0.9687500000000079
 40
1.0
 40
1.0
 40
1.0
 40
1.0
 10
30.05791673619119
 20
-28.6399049354897
 30
0.0
 10
30.18793837054194
 20
-28.55478557670198
 30
0.0
 10
30.31449058022583
 20
-28.45776576763213
 30
0.0
 10
30.49433812726021
 20
-28.28939121388826
 30
0.0
 10
30.55308861495399
 20
-28.22963596468475
 30
0.0
 10
30.63305230264278
 20
-28.12634699870371
 30
0.0
 10
30.65924127355319
 20
-28.08979560951327
 30
0.0
 10
30.68762280529072
 20
-28.02488704327243
 30
0.0
 10
30.6964552150432
 20
-27.99925661215442
 30
0.0
 10
30.69045329189136
 20
-27.9634699291783
 30
0.0
 10
30.68447814890484
 20
-27.95356609147736
 30
0.0
 10
30.66983136706492
 20
-27.94109457565368
 30
0.0
 10
30.66138868712298
 20
-27.93766641471076
 30
0.0
 10
30.65280573408771
 20
-27.93550183045809
 30
0.0
  0
LWPOLYLINE
  5
425
330
407
100
AcDbEntity
  8
0
  6
Continuous
 62
     7
370
    25
100
AcDbPolyline
 90
        3
 70
   128
 43
0.0
 10
37.3002870981
 20
-26.8899482482
 10
37.3111988747
 20
-26.8895569266
 10
37.3197473954
 20
-26.8865226713
  0
LWPOLYLINE
  5
427
330
407
100
AcDbEntity
  8
0
  6
Continuous
 62
     7
370
    25
100
AcDbPolyline
 90
       11
 70
   128
 43
0.0
 10
-77.1388856516
 20
-0.750895695
 10
-77.2572594946
 20
-0.7302918489
 10
-77.301305008
 20
-0.7466466399
 10
-77.2696616225
 20
-0.7994548672
 10
-77.1633068048
 20
-0.8870852806
 10
-76.9855258636
 20
-1.0068309695
 10
-76.7418104661
 20
-1.1549929804
 10
-76.4396890002
 20
-1.3269945769
 10
-76.0884940218
 20
-1.5175226162
 10
-75.6990739714
 20
-1.7206916722
 10
-75.5629746798
 20
-1.79007073
  0
LWPOLYLINE
  5
43B
330
407
100
AcDbEntity
  8
0
  6
Continuous
 62
     7
370
    25
100
AcDbPolyline
 90
        3
 70
   128
 43
0.0
 10
-0.7134660292
 20
-39.7100502249
 10
-0.7534152561
 20
-39.7093338541
 10
-0.7816487474
 20
-39.6997335646
  0
LWPOLYLINE
  5
441
330
407
100
AcDbEntity
  8
0
  6
Continuous
 62
     8
370
    25
100
AcDbPolyline
 90
        3
 70
   128
 43
0.0
 10
37.3090681296
 20
-26.8834195409
 10
37.3360014071
 20
-26.8746536617
 10
37.3522121919
 20
-26.8648473832
  0
LWPOLYLINE
  5
442
330
407
100
AcDbEntity
  8
0
  6
Continuous
 62
     8
370
    25
100
AcDbPolyline
 90
        3
 70
   128
 43
0.0
 10
37.3002870981
 20
-26.8899482482
 10
37.3272206523
 20
-26.8811821633
 10
37.3434755816
 20
-26.871343039
  0
LWPOLYLINE
  5
443
330
407
100
AcDbEntity
  8
0
  6
Continuous
 62
     8
370
    25
100
AcDbPolyline
 90
        3
 70
   128
 43
0.0
 10
35.1398813929
 20
-16.436675923
 10
35.1232278667
 20
-16.4339389625
 10
35.0949059711
 20
-16.4355156628
  0
LWPOLYLINE
  5
444
330
407
100
AcDbEntity
  8
0
  6
Continuous
 62
     8
370
    25
100
AcDbPolyline
 90
        3
 70
   128
 43
0.0
 10
-69.5477813287
 20
9.9651073846
 10
-69.5644348549
 20
9.9678443451
 10
-69.5927567504
 20
9.9662676448
  0
LWPOLYLINE
  5
446
330
407
100
AcDbEntity
  8
0
  6
Continuous
 62
     8
370
    25
100
AcDbPolyline
 90
        6
 70
   128
 43
0.0
 10
-74.5683794353
 20
8.8769730228
 10
-74.5881702051
 20
8.8948361928
 10
-74.6022459284
 20
8.9116621339
 10
-74.6101092839
 20
8.9268563545
 10
-74.6114824447
 20
8.9398820149
 10
-74.6101512704
 20
8.9444834284
  0
LWPOLYLINE
  5
447
330
407
100
AcDbEntity
  8
0
  6
Continuous
 62
     8
370
    25
100
AcDbPolyline
 90
        3
 70
   128
 43
0.0
 10
-74.4632794385
 20
9.0620529227
 10
-74.4435972139
 20
9.0635636239
 10
-74.4224844036
 20
9.0605675695
  0
LWPOLYLINE
  5
448
330
407
100
AcDbEntity
  8
0
  6
Continuous
 62
     8
370
    25
100
AcDbPolyline
 90
        3
 70
   128
 43
0.0
 10
-69.6335517854
 20
9.967752998
 10
-69.6138695608
 20
9.9692636992
 10
-69.5927567504
 20
9.9662676448
  0
LINE
  5
449
330
407
100
AcDbEntity
  8
0
  6
Continuous
 62
     7
370
    25
100
AcDbLine
 10
37.4284942563
 20
-26.6627636993
 30
0.0
 11
35.2866005511
 21
-16.589009381
 31
0.0
  0
LINE
  5
44A
330
407
100
AcDbEntity
  8
0
  6
Continuous
 62
     7
370
    25
100
AcDbLine
 10
37.3434185884
 20
-26.8713854378
 30
0.0
 11
37.3522121919
 21
-26.8648473832
 31
0.0
  0
LINE
  5
44B
330
407
100
AcDbEntity
  8
0
  6
Continuous
 62
     7
370
    25
100
AcDbLine
 10
35.1398813929
 20
-16.436675923
 30
0.0
 11
-69.5477813287
 21
9.9651073846
 31
0.0
  0
LINE
  5
44C
330
407
100
AcDbEntity
  8
0
  6
Continuous
 62
     7
370
    25
100
AcDbLine
 10
-75.5629746798
 20
-1.79007073
 30
0.0
 11
-0.7816487474
 21
-39.6997335646
 31
0.0
  0
LINE
  5
44D
330
407
100
AcDbEntity
  8
0
  6
Continuous
 62
     7
370
    25
100
AcDbLine
 10
0.8406008172
 20
-39.8924812467
 30
0.0
 11
5.2955147702
 21
-39.0570685294
 31
0.0
  0
LINE
  5
44E
330
407
100
AcDbEntity
  8
0
  6
Continuous
 62
     7
370
    25
100
AcDbLine
 10
-74.6101512704
 20
8.9444834284
 30
0.0
 11
-78.5703270141
 21
-0.2654399172
 31
0.0
  0
LINE
  5
44F
330
407
100
AcDbEntity
  8
0
  6
Continuous
 62
     7
370
    25
100
AcDbLine
 10
-69.6335517854
 20
9.967752998
 30
0.0
 11
-74.4632794385
 21
9.0620529227
 31
0.0
  0
LINE
  5
450
330
407
100
AcDbEntity
  8
0
  6
Continuous
 62
     7
370
    25
100
AcDbLine
 10
5.3513841983
 20
-39.0461177358
 30
0.0
 11
0.8943725198
 21
-39.8819238314
 31
0.0
  0
LINE
  5
451
330
407
100
AcDbEntity
  8
0
  6
Continuous
 62
     7
370
    25
100
AcDbLine
 10
30.0579167362
 20
-28.6399049355
 30
0.0
 11
30.8627443061
 21
-28.1062972695
 31
0.0
  0
LINE
  5
452
330
407
100
AcDbEntity
  8
0
  6
Continuous
 62
     7
370
    25
100
AcDbLine
 10
30.8951648799
 20
-28.0861939152
 30
0.0
 11
37.3090681296
 21
-26.8834195409
 31
0.0
  0
LINE
  5
453
330
407
100
AcDbEntity
  8
0
  6
Continuous
 62
     7
370
    25
100
AcDbLine
 10
-0.8135358233
 20
-39.443286364
 30
0.0
 11
-77.1388856516
 21
-0.750895695
 31
0.0
  0
LINE
  5
454
330
407
100
AcDbEntity
  8
0
  6
Continuous
 62
     7
370
    25
100
AcDbLine
 10
30.6528057341
 20
-27.9355018305
 30
0.0
 11
-77.1388856516
 21
-0.750895695
 31
0.0
  0
LINE
  5
455
330
407
100
AcDbEntity
  8
0
  6
Continuous
 62
     7
370
    25
100
AcDbLine
 10
30.1192832863
 20
-17.5248102848
 30
0.0
 11
30.8627443061
 21
-28.1062972695
 31
0.0
  0
LINE
  5
456
330
407
100
AcDbEntity
  8
0
  6
Continuous
 62
     7
370
    25
100
AcDbLine
 10
-78.5294173649
 20
-0.4344908641
 30
0.0
 11
-75.0023722255
 21
-2.0742626691
 31
0.0
  0
LINE
  5
457
330
407
100
AcDbEntity
  8
0
  6
Continuous
 62
     7
370
    25
100
AcDbLine
 10
-78.5623146173
 20
-0.4114624544
 30
0.0
 11
-74.5683794353
 21
8.8769730228
 31
0.0
  0
LINE
  5
458
330
407
100
AcDbEntity
  8
0
  6
Continuous
 62
     7
370
    25
100
AcDbLine
 10
-74.5683794353
 20
8.8769730228
 30
0.0
 11
30.1192832863
 21
-17.5248102848
 31
0.0
  0
LINE
  5
459
330
407
100
AcDbEntity
  8
0
  6
Continuous
 62
     7
370
    25
100
AcDbLine
 10
31.1183859186
 20
-27.8436809454
 30
0.0
 11
30.3919488581
 21
-17.504491538
 31
0.0
  0
LINE
  5
45A
330
407
100
AcDbEntity
  8
0
  6
Continuous
 62
     7
370
    25
100
AcDbLine
 10
35.2216765112
 20
-16.5987914627
 30
0.0
 11
37.3635702165
 21
-26.672545781
 31
0.0
  0
LINE
  5
45B
330
407
100
AcDbEntity
  8
0
  6
Continuous
 62
     7
370
    25
100
AcDbLine
 10
37.3635702165
 20
-26.672545781
 30
0.0
 11
31.1183859186
 21
-27.8436809454
 31
0.0
  0
LINE
  5
45C
330
407
100
AcDbEntity
  8
0
  6
Continuous
 62
     7
370
    25
100
AcDbLine
 10
30.3919488581
 20
-17.504491538
 30
0.0
 11
35.2216765112
 21
-16.5987914627
 31
0.0
  0
LINE
  5
45D
330
407
100
AcDbEntity
  8
0
  6
Continuous
 62
     7
370
    25
100
AcDbLine
 10
35.0949059711
 20
-16.4355156628
 30
0.0
 11
30.265178318
 21
-17.3412157381
 31
0.0
  0
LINE
  5
45E
330
407
100
AcDbEntity
  8
0
  6
Continuous
 62
     7
370
    25
100
AcDbLine
 10
30.265178318
 20
-17.3412157381
 30
0.0
 11
-74.4224844036
 21
9.0605675695
 31
0.0
  0
LINE
  5
45F
330
407
100
AcDbEntity
  8
0
  6
Continuous
 62
     7
370
    25
100
AcDbLine
 10
-69.5927567504
 20
9.9662676448
 30
0.0
 11
35.0949059711
 21
-16.4355156628
 31
0.0
  0
LINE
  5
460
330
407
100
AcDbEntity
  8
0
  6
Continuous
 62
     7
370
    25
100
AcDbLine
 10
-74.4224844036
 20
9.0605675695
 30
0.0
 11
-69.5927567504
 21
9.9662676448
 31
0.0
  0
LINE
  5
461
330
407
100
AcDbEntity
  8
0
  6
Continuous
 62
     7
370
    25
100
AcDbLine
 10
5.3513841983
 20
-39.0461177358
 30
0.0
 11
5.2955147702
 21
-39.0570685294
 31
0.0
  0
ARC
  5
462
330
407
100
AcDbEntity
  8
0
  6
Continuous
 62
     7
370
    25
100
AcDbCircle
 10
37.2328673081
 20
-26.7043581353
 30
0.0
 40
0.1999999999999054
100
AcDbArc
 50
306.635659924
 51
12.003543221
  0
ARC
  5
463
330
407
100
AcDbEntity
  8
0
  6
Continuous
 62
     7
370
    25
100
AcDbCircle
 10
37.2241006742
 20
-26.7108761379
 30
0.0
 40
0.1999999999995334
100
AcDbArc
 50
298.5700994601
 51
306.6260321387
  0
ARC
  5
464
330
407
100
AcDbEntity
  8
0
  6
Continuous
 62
     7
370
    25
100
AcDbCircle
 10
35.0909736028
 20
-16.630603817
 30
0.0
 40
0.2000000000000117
100
AcDbArc
 50
12.003543221
 51
75.845411218
  0
ARC
  5
465
330
407
100
AcDbEntity
  8
0
  6
Continuous
 62
     7
370
    25
100
AcDbCircle
 10
-74.4264167719
 20
8.8654794153
 30
0.0
 40
0.1999999999999972
100
AcDbArc
 50
100.6211008688
 51
156.732774518
  0
ARC
  5
466
330
407
100
AcDbEntity
  8
0
  6
Continuous
 62
     7
370
    25
100
AcDbCircle
 10
-69.5966891188
 20
9.7711794906
 30
0.0
 40
0.2000000000002085
100
AcDbArc
 50
75.845411218
 51
100.6211008688
  0
ARC
  5
467
330
407
100
AcDbEntity
  8
0
  6
Continuous
 62
     7
370
    25
100
AcDbCircle
 10
-19.2026963349
 20
73.5492489794
 30
0.0
 40
115.2415700889125
100
AcDbArc
 50
282.3020987227
 51
299.3603253516
  0
ARC
  5
468
330
407
100
AcDbEntity
  8
0
  6
Continuous
 62
     7
370
    25
100
AcDbCircle
 10
-20.9530014287
 20
60.2419521946
 30
0.0
 40
102.4797457984295
100
AcDbArc
 50
282.3091982342
 51
299.8522998267
  0
ARC
  5
469
330
407
100
AcDbEntity
  8
0
  6
Continuous
 62
     7
370
    25
100
AcDbCircle
 10
-21.2968158375
 20
61.0453214598
 30
0.0
 40
103.0356738942562
100
AcDbArc
 50
282.3458072392
 51
300.277639461
  0
ARC
  5
46A
330
407
100
AcDbEntity
  8
0
  6
Continuous
 62
     7
370
    25
100
AcDbCircle
 10
0.1931975955
 20
-37.3299813232
 30
0.0
 40
2.340848216379413
100
AcDbArc
 50
244.5278665483
 51
283.3423140147
  0
ARC
  5
46B
330
407
100
AcDbEntity
  8
0
  6
Continuous
 62
     7
370
    25
100
AcDbCircle
 10
-78.4781211869
 20
-0.3261997669
 30
0.0
 40
0.1198259554436798
100
AcDbArc
 50
225.361527835
 51
244.6536533157
  0
ARC
  5
46C
330
407
100
AcDbEntity
  8
0
  6
Continuous
 62
     7
370
    25
100
AcDbCircle
 10
30.4836686374
 20
-27.4834438639
 30
0.0
 40
0.7298196913307484
100
AcDbArc
 50
304.3212744813
 51
330.4226981021
  0
ARC
  5
46D
330
407
100
AcDbEntity
  8
0
  6
Continuous
 62
     7
370
    25
100
AcDbCircle
 10
30.338208527
 20
-18.6229928343
 30
0.0
 40
1.119791575719234
100
AcDbArc
 50
87.2492404841
 51
101.2742460729
  0
ARC
  5
46E
330
407
100
AcDbEntity
  8
0
  6
Continuous
 62
     7
370
    25
100
AcDbCircle
 10
37.1610450133
 20
-26.7326815885
 30
0.0
 40
0.2112646995053078
100
AcDbArc
 50
314.4793686704
 51
16.5377335444
  0
ARC
  5
46F
330
407
100
AcDbEntity
  8
0
  6
Continuous
 62
     7
370
    25
100
AcDbCircle
 10
30.1896969586
 20
-17.5306724185
 30
0.0
 40
0.2039393766542579
100
AcDbArc
 50
7.3757460302
 51
68.277188285
  0
ARC
  5
470
330
407
100
AcDbEntity
  8
0
  6
Continuous
 62
     7
370
    25
100
AcDbCircle
 10
30.3316513111
 20
-17.543804753
 30
0.0
 40
0.2132157775447822
100
AcDbArc
 50
108.1655665404
 51
174.8889920442
  0
ARC
  5
471
330
407
100
AcDbEntity
  8
0
  6
Continuous
 62
     7
370
    25
100
AcDbCircle
 10
35.0194246117
 20
-16.6249723432
 30
0.0
 40
0.2039393766542494
100
AcDbArc
 50
7.3757460302
 51
68.277188285
  0
ARC
  5
472
330
407
100
AcDbEntity
  8
0
  6
Continuous
 62
     7
370
    25
100
AcDbCircle
 10
-74.3560114104
 20
8.8579785546
 30
0.0
 40
0.2132157775447787
100
AcDbArc
 50
108.1655665404
 51
174.8889920442
  0
ARC
  5
473
330
407
100
AcDbEntity
  8
0
  6
Continuous
 62
     7
370
    25
100
AcDbCircle
 10
0.335049513
 20
-37.5078445025
 30
0.0
 40
2.439076646150765
100
AcDbArc
 50
244.5399179126
 51
283.2568946189
  0
ARC
  5
474
330
407
100
AcDbEntity
  8
0
  6
Continuous
 62
     7
370
    25
100
AcDbCircle
 10
-78.45135291
 20
-0.3321427865
 30
0.0
 40
0.1363968849374479
100
AcDbArc
 50
150.7228163868
 51
215.5586333941
  0
ARC
  5
475
330
407
100
AcDbEntity
  8
0
  6
Continuous
 62
     8
370
    25
100
AcDbCircle
 10
35.3075069487
 20
-16.9481085911
 30
0.0
 40
0.3597072700790732
100
AcDbArc
 50
93.3319420115
 51
103.8046284328
  0
ARC
  5
476
330
407
100
AcDbEntity
  8
0
  6
Continuous
 62
     8
370
    25
100
AcDbCircle
 10
37.449400654
 20
-27.0218629094
 30
0.0
 40
0.359707270077273
100
AcDbArc
 50
93.3319420114
 51
103.8046284328
  0
ARC
  5
477
330
407
100
AcDbEntity
  8
0
  6
Continuous
 62
     8
370
    25
100
AcDbCircle
 10
-0.6666756301
 20
-39.5552315674
 30
0.0
 40
0.184660891691819
100
AcDbArc
 50
142.6832863849
 51
231.4924630539
  0
VIEWPORT
  5
48A
330
407
100
AcDbEntity
  8
0
100
AcDbViewport
 10
0.0
 20
0.0
 30
0.0
 40
205.6
 41
156.0
 68
     1
 69
     1
 12
0.0156719179
 22
-13.4469766655
 13
0.0
 23
0.0
 14
10.0
 24
10.0
 15
10.0
 25
10.0
 16
0.0
 26
0.0
 36
1.0
 17
0.0
 27
0.0
 37
0.0
 42
50.0
 43
0.0
 44
0.0
 45
123.7450452821
 50
0.0
 51
0.0
 72
   100
 90
   557152
  1

281
     0
 71
     1
 74
     0
110
0.0
120
0.0
130
0.0
111
1.0
121
0.0
131
0.0
112
0.0
122
1.0
132
0.0
 79
     0
146
0.0
  0
ENDBLK
  5
40A
330
407
100
AcDbEntity
  8
0
100
AcDbBlockEnd
  0
ENDSEC
  0
SECTION
  2
ENTITIES
  0
LWPOLYLINE
  5
79
330
1F
100
AcDbEntity
  8
0
  6
Continuous
 62
     7
370
    25
100
AcDbPolyline
 90
       13
 70
   128
 43
0.0
 10
-77.7364259947
 20
-10.0
 10
-77.9069727562
 20
-10.0088562662
 10
-77.9648876892
 20
-10.035151494
 10
-77.9083817968
 20
-10.0780734218
 10
-77.7392005505
 20
-10.1362961879
 10
-77.4625699724
 20
-10.2080212863
 10
-77.0870352027
 20
-10.2910331232
 10
-76.6241965402
 20
-10.3827674564
 10
-76.0883511075
 20
-10.4803906052
 10
-75.4960512124
 20
-10.5808869826
 10
-74.8655930451
 20
-10.6811522478
 10
-74.2164515083
 20
-10.7780891988
 10
-73.5686786351
 20
-10.8687034455
  0
SPLINE
  5
7D
330
1F
100
AcDbEntity
  8
0
  6
Continuous
 62
     7
370
    25
100
AcDbSpline
210
0.0
220
0.0
230
1.0
 70
     8
 71
     3
 72
    18
 73
    14
 74
     0
 42
0.000000001
 43
0.00000001
 40
0.0
 40
0.0
 40
0.0
 40
0.0
 40
0.4999999999999984
 40
0.4999999999999984
 40
0.750000000000009
 40
0.750000000000009
 40
0.8750000000000159
 40
0.8750000000000159
 40
0.9375000000000158
 40
0.9375000000000158
 40
0.9687500000000079
 40
0.9687500000000079
 40
1.0
 40
1.0
 40
1.0
 40
1.0
 10
78.83724462378835
 20
-10.81810324672097
 30
0.0
 10
78.99970672938323
 20
-10.70520623964851
 30
0.0
 10
79.15456330190858
 20
-10.58175253262238
 30
0.0
 10
79.36759728343281
 20
-10.37710852437068
 30
0.0
 10
79.43609193796858
 20
-10.30570726500494
 30
0.0
 10
79.5242508446414
 20
-10.1875008205392
 30
0.0
 10
79.55249540522846
 20
-10.14617957725096
 30
0.0
 10
79.57726668357577
 20
-10.0771773902295
 30
0.0
 10
79.58372229905774
 20
-10.05050391362559
 30
0.0
 10
79.56705744916131
 20
-10.01768809497627
 30
0.0
 10
79.55640322888273
 20
-10.00964817986475
 30
0.0
 10
79.53301113777981
 20
-10.00124372467593
 30
0.0
 10
79.52039536376972
 20
-9.999999999999984
 30
0.0
 10
79.50787472854431
 20
-9.999999999999986
 30
0.0
  0
SPLINE
  5
87
330
1F
100
AcDbEntity
  8
0
  6
Continuous
 62
     7
370
    25
100
AcDbSpline
210
0.0
220
0.0
230
1.0
 70
     8
 71
     3
 72
     8
 73
     4
 74
     0
 42
0.000000001
 43
0.00000001
 40
0.0
 40
0.0
 40
0.0
 40
0.0
 40
0.0000453377850437
 40
0.0000453377850437
 40
0.0000453377850437
 40
0.0000453377850437
 10
79.84132562702305
 20
-10.11283913876438
 30
0.0
 10
79.85356678571398
 20
-10.10414870624985
 30
0.0
 10
79.86571944950127
 20
-10.09551763225035
 30
0.0
 10
79.87740246651472
 20
-10.08721706836374
 30
0.0
  0
LINE
  5
90
330
1F
100
AcDbEntity
  8
0
  6
Continuous
 62
     7
370
    25
100
AcDbLine
 10
44.7655990909
 20
-26.5468222203
 30
0.0
 11
-77.7364259947
 21
-10.0
 31
0.0
  0
LINE
  5
91
330
1F
100
AcDbEntity
  8
0
  6
Continuous
 62
     7
370
    25
100
AcDbLine
 10
-79.7569937465
 20
-10.0328237943
 30
0.0
 11
44.7388274373
 21
-26.8489557633
 31
0.0
  0
LINE
  5
92
330
1F
100
AcDbEntity
  8
0
  6
Continuous
 62
     7
370
    25
100
AcDbLine
 10
79.5078747285
 20
-10.0
 30
0.0
 11
-77.7364259947
 21
-10.0
 31
0.0
  0
LINE
  5
93
330
1F
100
AcDbEntity
  8
0
  6
Continuous
 62
     7
370
    25
100
AcDbLine
 10
76.358103799
 20
-0.160776773
 30
0.0
 11
79.841325627
 21
-10.1128391388
 31
0.0
  0
LINE
  5
94
330
1F
100
AcDbEntity
  8
0
  6
Continuous
 62
     7
370
    25
100
AcDbLine
 10
-79.8083833315
 20
-10.0187182944
 30
0.0
 11
-76.358103799
 21
-0.160776773
 31
0.0
  0
LINE
  5
95
330
1F
100
AcDbEntity
  8
0
  6
Continuous
 62
     7
370
    25
100
AcDbLine
 10
-76.358103799
 20
-0.160776773
 30
0.0
 11
76.358103799
 21
-0.160776773
 31
0.0
  0
LINE
  5
96
330
1F
100
AcDbEntity
  8
0
  6
Continuous
 62
     7
370
    25
100
AcDbLine
 10
78.8372446238
 20
-10.8181032467
 30
0.0
 11
79.841325627
 21
-10.1128391388
 31
0.0
  0
LINE
  5
97
330
1F
100
AcDbEntity
  8
0
  6
Continuous
 62
     7
370
    25
100
AcDbLine
 10
79.9503375999
 20
-9.8581074284
 30
0.0
 11
76.5468754703
 21
-0.1339299151
 31
0.0
  0
LINE
  5
98
330
1F
100
AcDbEntity
  8
0
  6
Continuous
 62
     7
370
    25
100
AcDbLine
 10
-76.5468754703
 20
-0.1339299151
 30
0.0
 11
-79.9189937642
 21
-9.7685536121
 31
0.0
  0
LINE
  5
99
330
1F
100
AcDbEntity
  8
0
  6
Continuous
 62
     7
370
    25
100
AcDbLine
 10
76.358103799
 20
-0.160776773
 30
0.0
 11
76.358103799
 21
0.0
 31
0.0
  0
LINE
  5
9A
330
1F
100
AcDbEntity
  8
0
  6
Continuous
 62
     7
370
    25
100
AcDbLine
 10
76.358103799
 20
0.0
 30
0.0
 11
-76.358103799
 21
0.0
 31
0.0
  0
LINE
  5
9B
330
1F
100
AcDbEntity
  8
0
  6
Continuous
 62
     7
370
    25
100
AcDbLine
 10
-76.358103799
 20
-0.160776773
 30
0.0
 11
-76.358103799
 21
0.0
 31
0.0
  0
ARC
  5
9C
330
1F
100
AcDbEntity
  8
0
  6
Continuous
 62
     7
370
    25
100
AcDbCircle
 10
45.4081187759
 20
-21.7900198853
 30
0.0
 40
4.799999999999971
100
AcDbArc
 50
262.3073957667
 51
288.0155371516
  0
ARC
  5
9D
330
1F
100
AcDbEntity
  8
0
  6
Continuous
 62
     7
370
    25
100
AcDbCircle
 10
46.4840974932
 20
-26.5941727199
 30
0.0
 40
0.4735589646026674
100
AcDbArc
 50
353.3738723887
 51
30.3785579628
  0
ARC
  5
9E
330
1F
100
AcDbEntity
  8
0
  6
Continuous
 62
     7
370
    25
100
AcDbCircle
 10
45.4081187759
 20
-21.893953331
 30
0.0
 40
5.000000000000002
100
AcDbArc
 50
262.3073957667
 51
288.0155371516
  0
ARC
  5
9F
330
1F
100
AcDbEntity
  8
0
  6
Continuous
 62
     7
370
    25
100
AcDbCircle
 10
45.7797908469
 20
-26.788941282
 30
0.0
 40
1.042691976607018
100
AcDbArc
 50
166.5730322743
 51
183.2996109805
  0
ARC
  5
A0
330
1F
100
AcDbEntity
  8
0
  6
Continuous
 62
     7
370
    25
100
AcDbCircle
 10
9.2296522241
 20
89.4531979608
 30
0.0
 40
121.778352522182
100
AcDbArc
 50
288.0155371516
 51
305.2467922225
  0
ARC
  5
A1
330
1F
100
AcDbEntity
  8
0
  6
Continuous
 62
     7
370
    25
100
AcDbCircle
 10
9.2296522241
 20
89.3492645152
 30
0.0
 40
121.9783525221809
100
AcDbArc
 50
288.0155371516
 51
304.7959339212
  0
ARC
  5
A2
330
1F
100
AcDbEntity
  8
0
  6
Continuous
 62
     7
370
    25
100
AcDbCircle
 10
-79.730222093
 20
-9.834623697
 30
0.0
 40
0.2000000000001282
100
AcDbArc
 50
160.7099537808
 51
262.3073957666
  0
ARC
  5
A3
330
1F
100
AcDbEntity
  8
0
  6
Continuous
 62
     7
370
    25
100
AcDbCircle
 10
79.7615659287
 20
-9.9241775133
 30
0.0
 40
0.1999999999999947
100
AcDbArc
 50
305.3930778655
 51
19.2900462192
  0
ARC
  5
A4
330
1F
100
AcDbEntity
  8
0
  6
Continuous
 62
     7
370
    25
100
AcDbCircle
 10
76.4892704268
 20
-0.4059747302
 30
0.0
 40
0.2780768283799885
100
AcDbArc
 50
78.0443121121
 51
118.1441869959
  0
ARC
  5
A5
330
1F
100
AcDbEntity
  8
0
  6
Continuous
 62
     7
370
    25
100
AcDbCircle
 10
-76.4892704268
 20
-0.4059747302
 30
0.0
 40
0.278076828380096
100
AcDbArc
 50
61.8558130041
 51
101.9556878879
  0
ARC
  5
A6
330
1F
100
AcDbEntity
  8
0
  6
Continuous
 62
     7
370
    25
100
AcDbCircle
 10
76.358103799
 20
-0.2
 30
0.0
 40
0.1999999999999704
100
AcDbArc
 50
19.2900462192
 51
90.0
  0
ARC
  5
A7
330
1F
100
AcDbEntity
  8
0
  6
Continuous
 62
     7
370
    25
100
AcDbCircle
 10
-76.358103799
 20
-0.2
 30
0.0
 40
0.1999999999999959
100
AcDbArc
 50
90.0
 51
160.7099537808
  0
SPLINE
  5
AC
330
1B
100
AcDbEntity
 67
     1
  8
0
  6
Continuous
 62
     7
370
    25
100
AcDbSpline
210
0.0
220
0.0
230
1.0
 70
     8
 71
     3
 72
    12
 73
     8
 74
     0
 42
0.000000001
 43
0.00000001
 40
0.0
 40
0.0
 40
0.0
 40
0.0
 40
0.1134592306507335
 40
0.3569978751572196
 40
0.6019990207286084
 40
0.848504718692394
 40
1.0
 40
1.0
 40
1.0
 40
1.0
 10
-68.1167426902796
 20
36.875754389009
 30
0.0
 10
-68.56896854100772
 20
36.72562350952771
 30
0.0
 10
-69.99189082661788
 20
36.25323880655636
 30
0.0
 10
-72.33251480609313
 20
35.40994324967603
 30
0.0
 10
-75.14255096184947
 20
34.34599881472489
 30
0.0
 10
-77.54995880009227
 20
33.37952750019761
 30
0.0
 10
-79.00553535126775
 20
32.75902072150582
 30
0.0
 10
-79.55958669930406
 20
32.52283072729205
 30
0.0
  0
SPLINE
  5
AD
330
1B
100
AcDbEntity
 67
     1
  8
0
  6
Continuous
 62
     7
370
    25
100
AcDbSpline
210
0.0
220
0.0
230
1.0
 70
     8
 71
     3
 72
     9
 73
     5
 74
     0
 42
0.000000001
 43
0.00000001
 40
0.0
 40
0.0
 40
0.0
 40
0.0
 40
0.7664662176911338
 40
1.0
 40
1.0
 40
1.0
 40
1.0
 10
-46.93144893394359
 20
42.47301472505286
 30
0.0
 10
-47.47700255902713
 20
42.36537542373382
 30
0.0
 10
-48.18878034191096
 20
42.22493961738704
 30
0.0
 10
-48.89074270062697
 20
42.07182794856641
 30
0.0
 10
-49.05467462529639
 20
42.03607120143111
 30
0.0
  0
SPLINE
  5
AF
330
1B
100
AcDbEntity
 67
     1
  8
0
  6
Continuous
 62
     7
370
    25
100
AcDbSpline
210
0.0
220
0.0
230
1.0
 70
     8
 71
     3
 72
    11
 73
     7
 74
     0
 42
0.000000001
 43
0.00000001
 40
0.0
 40
0.0
 40
0.0
 40
0.0
 40
0.1563379922396413
 40
0.4523599871192415
 40
0.7495317824245474
 40
1.0
 40
1.0
 40
1.0
 40
1.0
 10
-44.74922261366522
 20
42.59300953232036
 30
0.0
 10
-44.86381771249771
 20
42.60094318701527
 30
0.0
 10
-45.19539570380471
 20
42.62389901422133
 30
0.0
 10
-45.7515962660174
 20
42.620633129886
 30
0.0
 10
-46.37119852928829
 20
42.57185712004667
 30
0.0
 10
-46.75562701544298
 20
42.50403417523548
 30
0.0
 10
-46.93144893394359
 20
42.47301472505284
 30
0.0
  0
SPLINE
  5
C6
330
1B
100
AcDbEntity
 67
     1
  8
0
  6
Continuous
 62
     7
370
    25
100
AcDbSpline
210
0.0
220
0.0
230
1.0
 70
     8
 71
     3
 72
     8
 73
     4
 74
     0
 42
0.000000001
 43
0.00000001
 40
0.0
 40
0.0
 40
0.0
 40
0.0
 40
0.0000453377850437
 40
0.0000453377850437
 40
0.0000453377850437
 40
0.0000453377850437
 10
-79.84132562702305
 20
32.52256782775287
 30
0.0
 10
-79.85356678571398
 20
32.52082974124997
 30
0.0
 10
-79.86571944950127
 20
32.51748998452467
 30
0.0
 10
-79.87740246651472
 20
32.51269433225359
 30
0.0
  0
LWPOLYLINE
  5
CA
330
1B
100
AcDbEntity
 67
     1
  8
0
  6
Continuous
 62
     7
370
    25
100
AcDbPolyline
 90
        9
 70
   128
 43
0.0
 10
79.8083833315
 20
32.5037436589
 10
79.8414532058
 20
32.4965647128
 10
79.87059308
 20
32.481132222
 10
79.8947733889
 20
32.4579914448
 10
79.9131397976
 20
32.4279599875
 10
79.9250433869
 20
32.3920989168
 10
79.9300635813
 20
32.3516752702
 10
79.928023008
 20
32.3081172897
 10
79.9189937642
 20
32.2629639589
  0
SPLINE
  5
D4
330
1B
100
AcDbEntity
 67
     1
  8
0
  6
Continuous
 62
     7
370
    25
100
AcDbSpline
210
0.0
220
0.0
230
1.0
 70
     8
 71
     3
 72
    14
 73
    10
 74
     0
 42
0.000000001
 43
0.00000001
 40
0.0
 40
0.0
 40
0.0
 40
0.0
 40
0.2630126733039235
 40
0.4064406103564085
 40
0.5261329865504983
 40
0.6151968062411832
 40
0.7044100273767996
 40
0.8222967056270047
 40
1.0
 40
1.0
 40
1.0
 40
1.0
 10
-79.56004944531361
 20
32.52404252168874
 30
0.0
 10
-79.5660228744879
 20
32.52131590056808
 30
0.0
 10
-79.57525377644033
 20
32.51710237907282
 30
0.0
 10
-79.57921246591492
 20
32.51119595225897
 30
0.0
 10
-79.57673549709439
 20
32.50720725629004
 30
0.0
 10
-79.5687697634345
 20
32.50417277345563
 30
0.0
 10
-79.55591688643416
 20
32.50191128249243
 30
0.0
 10
-79.53509518403733
 20
32.50024957951283
 30
0.0
 10
-79.51809495552143
 20
32.50009370744258
 30
0.0
 10
-79.50787472854434
 20
32.50000000000001
 30
0.0
  0
LWPOLYLINE
  5
D6
330
1B
100
AcDbEntity
 67
     1
  8
0
  6
Continuous
 62
     7
370
    25
100
AcDbPolyline
 90
        5
 70
   128
 43
0.0
 10
77.7364259947
 20
32.5
 10
77.9069727562
 20
32.5017712532
 10
77.9648876892
 20
32.5070302988
 10
77.9083817968
 20
32.5156146844
 10
77.8918571101
 20
32.5170301596
  0
LWPOLYLINE
  5
DB
330
1B
100
AcDbEntity
 67
     1
  8
0
  6
Continuous
 62
     7
370
    25
100
AcDbPolyline
 90
        4
 70
   128
 43
0.0
 10
-44.7492226137
 20
42.5930095323
 10
-44.7498657663
 20
42.5930045371
 10
-44.757450155
 20
42.5854214645
 10
-44.7655990909
 20
42.5645548837
  0
LWPOLYLINE
  5
DF
330
1B
100
AcDbEntity
 67
     1
  8
0
  6
Continuous
 62
     8
370
    25
100
AcDbPolyline
 90
        4
 70
   128
 43
0.0
 10
-46.9314181986
 20
42.4730207779
 10
-46.9281102568
 20
42.4733665472
 10
-46.9109957887
 20
42.466966488
 10
-46.8926382251
 20
42.4476902886
  0
LINE
  5
E2
330
1B
100
AcDbEntity
 67
     1
  8
0
  6
Continuous
 62
     7
370
    25
100
AcDbLine
 10
79.930222093
 20
23.7
 30
0.0
 11
79.930222093
 21
32.342673095
 31
0.0
  0
LINE
  5
E3
330
1B
100
AcDbEntity
 67
     1
  8
0
  6
Continuous
 62
     7
370
    25
100
AcDbLine
 10
-79.9615659287
 20
32.3605838582
 30
0.0
 11
-79.9615659287
 21
23.7
 31
0.0
  0
LINE
  5
E4
330
1B
100
AcDbEntity
 67
     1
  8
0
  6
Continuous
 62
     7
370
    25
100
AcDbLine
 10
77.8918571101
 20
32.5170301596
 30
0.0
 11
-44.7492226137
 21
42.5930095323
 31
0.0
  0
LINE
  5
E5
330
1B
100
AcDbEntity
 67
     1
  8
0
  6
Continuous
 62
     7
370
    25
100
AcDbLine
 10
-76.5468754703
 20
30.3360392195
 30
0.0
 11
76.5468754703
 21
30.3360392195
 31
0.0
  0
LINE
  5
E6
330
1B
100
AcDbEntity
 67
     1
  8
0
  6
Continuous
 62
     7
370
    25
100
AcDbLine
 10
-76.358103799
 20
23.5
 30
0.0
 11
-76.358103799
 21
30.5321553546
 31
0.0
  0
LINE
  5
E7
330
1B
100
AcDbEntity
 67
     1
  8
0
  6
Continuous
 62
     7
370
    25
100
AcDbLine
 10
76.358103799
 20
30.5321553546
 30
0.0
 11
-76.358103799
 21
30.5321553546
 31
0.0
  0
LINE
  5
E8
330
1B
100
AcDbEntity
 67
     1
  8
0
  6
Continuous
 62
     7
370
    25
100
AcDbLine
 10
76.358103799
 20
30.5321553546
 30
0.0
 11
76.358103799
 21
23.5
 31
0.0
  0
LINE
  5
E9
330
1B
100
AcDbEntity
 67
     1
  8
0
  6
Continuous
 62
     7
370
    25
100
AcDbLine
 10
79.930222093
 20
23.7
 30
0.0
 11
-79.9615659287
 21
23.7
 31
0.0
  0
LINE
  5
EA
330
1B
100
AcDbEntity
 67
     1
  8
0
  6
Continuous
 62
     7
370
    25
100
AcDbLine
 10
-79.7615659287
 20
23.5
 30
0.0
 11
79.730222093
 21
23.5
 31
0.0
  0
LINE
  5
EB
330
1B
100
AcDbEntity
 67
     1
  8
0
  6
Continuous
 62
     7
370
    25
100
AcDbLine
 10
-76.5468754703
 20
30.3360392195
 30
0.0
 11
-76.5468754703
 21
23.7
 31
0.0
  0
LINE
  5
EC
330
1B
100
AcDbEntity
 67
     1
  8
0
  6
Continuous
 62
     7
370
    25
100
AcDbLine
 10
76.5468754703
 20
23.7
 30
0.0
 11
76.5468754703
 21
30.3360392195
 31
0.0
  0
LINE
  5
ED
330
1B
100
AcDbEntity
 67
     1
  8
0
  6
Continuous
 62
     7
370
    25
100
AcDbLine
 10
-79.9503375999
 20
32.2808747221
 30
0.0
 11
-76.5468754703
 21
30.3360392195
 31
0.0
  0
LINE
  5
EE
330
1B
100
AcDbEntity
 67
     1
  8
0
  6
Continuous
 62
     7
370
    25
100
AcDbLine
 10
-76.358103799
 20
30.5321553546
 30
0.0
 11
-79.841325627
 21
32.5225678278
 31
0.0
  0
LINE
  5
EF
330
1B
100
AcDbEntity
 67
     1
  8
0
  6
Continuous
 62
     7
370
    25
100
AcDbLine
 10
76.5468754703
 20
30.3360392195
 30
0.0
 11
79.9189937642
 21
32.2629639589
 31
0.0
  0
LINE
  5
F0
330
1B
100
AcDbEntity
 67
     1
  8
0
  6
Continuous
 62
     7
370
    25
100
AcDbLine
 10
79.8083833315
 20
32.5037436589
 30
0.0
 11
76.358103799
 21
30.5321553546
 31
0.0
  0
LINE
  5
F1
330
1B
100
AcDbEntity
 67
     1
  8
0
  6
Continuous
 62
     7
370
    25
100
AcDbLine
 10
79.9189937642
 20
32.2629639589
 30
0.0
 11
79.9189937642
 21
23.7
 31
0.0
  0
LINE
  5
F2
330
1B
100
AcDbEntity
 67
     1
  8
0
  6
Continuous
 62
     7
370
    25
100
AcDbLine
 10
-79.9503375999
 20
23.7
 30
0.0
 11
-79.9503375999
 21
32.2808747221
 31
0.0
  0
LINE
  5
F3
330
1B
100
AcDbEntity
 67
     1
  8
0
  6
Continuous
 62
     7
370
    25
100
AcDbLine
 10
-79.421329467
 20
32.5819359189
 30
0.0
 11
-79.841325627
 21
32.5225678278
 31
0.0
  0
LINE
  5
F4
330
1B
100
AcDbEntity
 67
     1
  8
0
  6
Continuous
 62
     7
370
    25
100
AcDbLine
 10
-79.5078747285
 20
32.5
 30
0.0
 11
77.7364259947
 21
32.5
 31
0.0
  0
LINE
  5
F5
330
1B
100
AcDbEntity
 67
     1
  8
0
  6
Continuous
 62
     7
370
    25
100
AcDbLine
 10
79.7569937465
 20
32.5065647589
 30
0.0
 11
77.1679124443
 21
32.5765082035
 31
0.0
  0
LINE
  5
F6
330
1B
100
AcDbEntity
 67
     1
  8
0
  6
Continuous
 62
     7
370
    25
100
AcDbLine
 10
-44.7655990909
 20
42.5645548837
 30
0.0
 11
77.7364259947
 21
32.5
 31
0.0
  0
LINE
  5
F7
330
1B
100
AcDbEntity
 67
     1
  8
0
  6
Continuous
 62
     8
370
    25
100
AcDbLine
 10
-49.0165885401
 20
42.0143639693
 30
0.0
 11
-46.8926382251
 21
42.4476902886
 31
0.0
  0
ARC
  5
F8
330
1B
100
AcDbEntity
 67
     1
  8
0
  6
Continuous
 62
     7
370
    25
100
AcDbCircle
 10
79.730222093
 20
23.7
 30
0.0
 40
0.2000000000000171
100
AcDbArc
 50
270.0
 51
360.0
  0
ARC
  5
F9
330
1B
100
AcDbEntity
 67
     1
  8
0
  6
Continuous
 62
     7
370
    25
100
AcDbCircle
 10
-79.7615659287
 20
23.7
 30
0.0
 40
0.2000000000000028
100
AcDbArc
 50
180.0
 51
270.0
  0
ARC
  5
FA
330
1B
100
AcDbEntity
 67
     1
  8
0
  6
Continuous
 62
     7
370
    25
100
AcDbCircle
 10
-76.33868054
 20
30.3245502934
 30
0.0
 40
0.2085116889020796
100
AcDbArc
 50
95.3449594857
 51
176.8414216405
  0
ARC
  5
FB
330
1B
100
AcDbEntity
 67
     1
  8
0
  6
Continuous
 62
     7
370
    25
100
AcDbCircle
 10
-76.3523226666
 20
23.6945434298
 30
0.0
 40
0.1946293081416853
100
AcDbArc
 50
178.3934618393
 51
268.2978760035
  0
ARC
  5
FC
330
1B
100
AcDbEntity
 67
     1
  8
0
  6
Continuous
 62
     7
370
    25
100
AcDbCircle
 10
76.33868054
 20
30.3245502934
 30
0.0
 40
0.2085116889021127
100
AcDbArc
 50
3.1585783595
 51
84.6550405143
  0
ARC
  5
FD
330
1B
100
AcDbEntity
 67
     1
  8
0
  6
Continuous
 62
     7
370
    25
100
AcDbCircle
 10
76.3523226666
 20
23.6945434298
 30
0.0
 40
0.1946293081416884
100
AcDbArc
 50
271.7021239965
 51
1.6065381607
  0
ARC
  5
FE
330
1B
100
AcDbEntity
 67
     1
  8
0
  6
Continuous
 62
     7
370
    25
100
AcDbCircle
 10
-79.7748145893
 20
32.3530348748
 30
0.0
 40
0.1897772770951684
100
AcDbArc
 50
122.7224405119
 51
202.3483017896
  0
ARC
  5
FF
330
1B
100
AcDbEntity
 67
     1
  8
0
  6
Continuous
 62
     7
370
    25
100
AcDbCircle
 10
-79.7557847962
 20
23.6945434298
 30
0.0
 40
0.1946293081416995
100
AcDbArc
 50
178.3934618393
 51
268.2978760035
  0
ARC
  5
100
330
1B
100
AcDbEntity
 67
     1
  8
0
  6
Continuous
 62
     7
370
    25
100
AcDbCircle
 10
79.7244409605
 20
23.6945434298
 30
0.0
 40
0.1946293081417258
100
AcDbArc
 50
271.7021239965
 51
1.6065381607
  0
ARC
  5
101
330
1B
100
AcDbEntity
 67
     1
  8
0
  6
Continuous
 62
     7
370
    25
100
AcDbCircle
 10
79.7335778424
 20
31.6105463132
 30
0.0
 40
0.8963243606910403
100
AcDbArc
 50
85.2126370646
 51
88.5030138755
  0
ARC
  5
102
330
1B
100
AcDbEntity
 67
     1
  8
0
  6
Continuous
 62
     7
370
    25
100
AcDbCircle
 10
-14.1665148046
 20
-124.5803461457
 30
0.0
 40
170.2008374764352
100
AcDbArc
 50
101.8153641479
 51
108.4279165391
  0
ARC
  5
103
330
1B
100
AcDbEntity
 67
     1
  8
0
  6
Continuous
 62
     7
370
    25
100
AcDbCircle
 10
-45.40728573
 20
34.8283896958
 30
0.0
 40
7.762732351285615
100
AcDbArc
 50
85.258378804
 51
101.03123067
  0
ARC
  5
104
330
1B
100
AcDbEntity
 67
     1
  8
0
  6
Continuous
 62
     8
370
    25
100
AcDbCircle
 10
-20.5814985075
 20
-104.9305754255
 30
0.0
 40
149.5308693090321
100
AcDbArc
 50
108.475996071
 51
113.2082962028
  0
VIEWPORT
  5
478
330
1B
100
AcDbEntity
 67
     1
  8
0
100
AcDbViewport
 10
0.0
 20
0.0
 30
0.0
 40
205.6
 41
156.0
 68
     1
 69
     1
 12
0.0156719179
 22
-13.4469766655
 13
0.0
 23
0.0
 14
10.0
 24
10.0
 15
10.0
 25
10.0
 16
0.0
 26
0.0
 36
1.0
 17
0.0
 27
0.0
 37
0.0
 42
50.0
 43
0.0
 44
0.0
 45
123.7450452821
 50
0.0
 51
0.0
 72
   100
 90
   557152
  1

281
     0
 71
     1
 74
     0
110
0.0
120
0.0
130
0.0
111
1.0
121
0.0
131
0.0
112
0.0
122
1.0
132
0.0
 79
     0
146
0.0
  0
ENDSEC
  0
SECTION
  2
OBJECTS
  0
DICTIONARY
  5
C
330
0
100
AcDbDictionary
281
     1
  3
ACAD_GROUP
350
D
  3
ACAD_LAYOUT
350
1A
  3
ACAD_MLINESTYLE
350
17
  3
ACAD_PLOTSETTINGS
350
19
  3
ACAD_PLOTSTYLENAME
350
E
  3
ACAD_SCALELIST
350
47
  0
DICTIONARY
  5
D
102
{ACAD_REACTORS
330
C
102
}
330
C
100
AcDbDictionary
281
     1
  0
DICTIONARY
  5
1A
102
{ACAD_REACTORS
330
C
102
}
330
C
100
AcDbDictionary
281
     1
  3
_Bottom
350
1DD
  3
_Dimetric
350
31A
  3
_Front
350
149
  3
_Isometric
350
237
  3
_Left
350
196
  3
_Right
350
26
  3
_Top
350
1E
  3
_Trimetric
350
2A8
  3
ISO PERSP
350
396
  3
ISO PERSP BACK
350
408
  3
Model
350
22
  0
DICTIONARY
  5
17
102
{ACAD_REACTORS
330
C
102
}
330
C
100
AcDbDictionary
281
     1
  3
Standard
350
18
  0
DICTIONARY
  5
19
102
{ACAD_REACTORS
330
C
102
}
330
C
100
AcDbDictionary
281
     1
  0
ACDBDICTIONARYWDFLT
  5
E
102
{ACAD_REACTORS
330
C
102
}
330
C
100
AcDbDictionary
281
     1
  3
Normal
350
F
100
AcDbDictionaryWithDefault
340
F
  0
DICTIONARY
  5
47
102
{ACAD_REACTORS
330
C
102
}
330
C
100
AcDbDictionary
281
     1
  3
A0
350
48
  3
A1
350
49
  3
A2
350
4A
  3
A3
350
4B
  3
A4
350
4C
  3
A5
350
4D
  3
A6
350
4E
  3
A7
350
4F
  3
A8
350
50
  3
A9
350
51
  3
B0
350
52
  3
B1
350
53
  3
B2
350
54
  3
B3
350
55
  3
B4
350
56
  3
B5
350
57
  3
B6
350
58
  3
B7
350
59
  3
B8
350
5A
  3
B9
350
5B
  3
C0
350
5C
  3
C1
350
5D
  3
C2
350
5E
  3
C3
350
5F
  3
C4
350
60
  3
C5
350
61
  3
C6
350
62
  3
C7
350
63
  3
C8
350
64
  3
C9
350
65
  3
D0
350
66
  3
D1
350
67
  3
D2
350
68
  0
LAYOUT
  5
1DD
102
{ACAD_REACTORS
330
1A
102
}
330
1A
100
AcDbPlotSettings
  1

  2
none_device
  4
ISO_A4_(210.00_x_297.00_MM)
  6

 40
7.5
 41
20.0
 42
7.5
 43
20.0
 44
210.0
 45
297.0
 46
0.0
 47
0.0
 48
0.0
 49
0.0
140
0.0
141
0.0
142
1.0
143
0.6221588092
 70
   688
 72
     1
 73
     1
 74
     1
  7

 75
     0
147
1.6073066639
148
79.9645918664
149
-23.5
100
AcDbLayout
  1
_Bottom
 70
     1
 71
     5
 10
0.0
 20
0.0
 11
0.0
 21
0.0
 12
0.0
 22
0.0
 32
0.0
 14
0.0
 24
0.0
 34
0.0
 15
0.0
 25
0.0
 35
0.0
146
0.0
 13
0.0
 23
0.0
 33
0.0
 16
1.0
 26
0.0
 36
0.0
 17
0.0
 27
1.0
 37
0.0
 76
     0
330
1DC
331
480
  0
LAYOUT
  5
31A
102
{ACAD_REACTORS
330
1A
102
}
330
1A
100
AcDbPlotSettings
  1

  2
none_device
  4
ISO_A4_(210.00_x_297.00_MM)
  6

 40
7.5
 41
20.0
 42
7.5
 43
20.0
 44
210.0
 45
297.0
 46
0.0
 47
0.0
 48
0.0
 49
0.0
140
0.0
141
0.0
142
1.0
143
0.6221588092
 70
   688
 72
     1
 73
     1
 74
     1
  7

 75
     0
147
1.6073066639
148
79.9645918664
149
-23.5
100
AcDbLayout
  1
_Dimetric
 70
     1
 71
     8
 10
0.0
 20
0.0
 11
0.0
 21
0.0
 12
0.0
 22
0.0
 32
0.0
 14
0.0
 24
0.0
 34
0.0
 15
0.0
 25
0.0
 35
0.0
146
0.0
 13
0.0
 23
0.0
 33
0.0
 16
1.0
 26
0.0
 36
0.0
 17
0.0
 27
1.0
 37
0.0
 76
     0
330
319
331
486
  0
LAYOUT
  5
149
102
{ACAD_REACTORS
330
1A
102
}
330
1A
100
AcDbPlotSettings
  1

  2
none_device
  4
ISO_A4_(210.00_x_297.00_MM)
  6

 40
7.5
 41
20.0
 42
7.5
 43
20.0
 44
210.0
 45
297.0
 46
0.0
 47
0.0
 48
0.0
 49
0.0
140
0.0
141
0.0
142
1.0
143
0.6221588092
 70
   688
 72
     1
 73
     1
 74
     1
  7

 75
     0
147
1.6073066639
148
79.9645918664
149
-23.5
100
AcDbLayout
  1
_Front
 70
     1
 71
     3
 10
0.0
 20
0.0
 11
0.0
 21
0.0
 12
0.0
 22
0.0
 32
0.0
 14
0.0
 24
0.0
 34
0.0
 15
0.0
 25
0.0
 35
0.0
146
0.0
 13
0.0
 23
0.0
 33
0.0
 16
1.0
 26
0.0
 36
0.0
 17
0.0
 27
1.0
 37
0.0
 76
     0
330
148
331
47C
  0
LAYOUT
  5
237
102
{ACAD_REACTORS
330
1A
102
}
330
1A
100
AcDbPlotSettings
  1

  2
none_device
  4
ISO_A4_(210.00_x_297.00_MM)
  6

 40
7.5
 41
20.0
 42
7.5
 43
20.0
 44
210.0
 45
297.0
 46
0.0
 47
0.0
 48
0.0
 49
0.0
140
0.0
141
0.0
142
1.0
143
0.6221588092
 70
   688
 72
     1
 73
     1
 74
     1
  7

 75
     0
147
1.6073066639
148
79.9645918664
149
-23.5
100
AcDbLayout
  1
_Isometric
 70
     1
 71
     6
 10
0.0
 20
0.0
 11
0.0
 21
0.0
 12
0.0
 22
0.0
 32
0.0
 14
0.0
 24
0.0
 34
0.0
 15
0.0
 25
0.0
 35
0.0
146
0.0
 13
0.0
 23
0.0
 33
0.0
 16
1.0
 26
0.0
 36
0.0
 17
0.0
 27
1.0
 37
0.0
 76
     0
330
236
331
482
  0
LAYOUT
  5
196
102
{ACAD_REACTORS
330
1A
102
}
330
1A
100
AcDbPlotSettings
  1

  2
none_device
  4
ISO_A4_(210.00_x_297.00_MM)
  6

 40
7.5
 41
20.0
 42
7.5
 43
20.0
 44
210.0
 45
297.0
 46
0.0
 47
0.0
 48
0.0
 49
0.0
140
0.0
141
0.0
142
1.0
143
0.6221588092
 70
   688
 72
     1
 73
     1
 74
     1
  7

 75
     0
147
1.6073066639
148
79.9645918664
149
-23.5
100
AcDbLayout
  1
_Left
 70
     1
 71
     4
 10
0.0
 20
0.0
 11
0.0
 21
0.0
 12
0.0
 22
0.0
 32
0.0
 14
0.0
 24
0.0
 34
0.0
 15
0.0
 25
0.0
 35
0.0
146
0.0
 13
0.0
 23
0.0
 33
0.0
 16
1.0
 26
0.0
 36
0.0
 17
0.0
 27
1.0
 37
0.0
 76
     0
330
195
331
47E
  0
LAYOUT
  5
26
102
{ACAD_REACTORS
330
1A
102
}
330
1A
100
AcDbPlotSettings
  1

  2
none_device
  4
ISO_A4_(210.00_x_297.00_MM)
  6

 40
7.5
 41
20.0
 42
7.5
 43
20.0
 44
210.0
 45
297.0
 46
0.0
 47
0.0
 48
0.0
 49
0.0
140
0.0
141
0.0
142
1.0
143
0.6221588092
 70
   688
 72
     1
 73
     1
 74
     1
  7

 75
     0
147
1.6073066639
148
79.9645918664
149
-23.5
100
AcDbLayout
  1
_Right
 70
     1
 71
     2
 10
0.0
 20
0.0
 11
0.0
 21
0.0
 12
0.0
 22
0.0
 32
0.0
 14
0.0
 24
0.0
 34
0.0
 15
0.0
 25
0.0
 35
0.0
146
0.0
 13
0.0
 23
0.0
 33
0.0
 16
1.0
 26
0.0
 36
0.0
 17
0.0
 27
1.0
 37
0.0
 76
     0
330
23
331
47A
  0
LAYOUT
  5
1E
102
{ACAD_REACTORS
330
1A
102
}
330
1A
100
AcDbPlotSettings
  1

  2
none_device
  4
ISO_A4_(210.00_x_297.00_MM)
  6

 40
7.5
 41
20.0
 42
7.5
 43
20.0
 44
210.0
 45
297.0
 46
0.0
 47
0.0
 48
0.0
 49
0.0
140
0.0
141
0.0
142
1.0
143
0.6221588092
 70
   688
 72
     1
 73
     1
 74
     1
  7

 75
     0
147
1.6073066639
148
79.9645918664
149
-23.5
100
AcDbLayout
  1
_Top
 70
     1
 71
     1
 10
-92.40776805
 20
18.8338089311
 11
92.3733982766
 21
149.487158859
 12
0.0
 22
0.0
 32
0.0
 14
-79.9645918664
 24
23.5
 34
0.0
 15
79.930222093
 25
42.6196232319
 35
0.0
146
0.0
 13
0.0
 23
0.0
 33
0.0
 16
1.0
 26
0.0
 36
0.0
 17
0.0
 27
1.0
 37
0.0
 76
     0
330
1B
331
478
  0
LAYOUT
  5
2A8
102
{ACAD_REACTORS
330
1A
102
}
330
1A
100
AcDbPlotSettings
  1

  2
none_device
  4
ISO_A4_(210.00_x_297.00_MM)
  6

 40
7.5
 41
20.0
 42
7.5
 43
20.0
 44
210.0
 45
297.0
 46
0.0
 47
0.0
 48
0.0
 49
0.0
140
0.0
141
0.0
142
1.0
143
0.6221588092
 70
   688
 72
     1
 73
     1
 74
     1
  7

 75
     0
147
1.6073066639
148
79.9645918664
149
-23.5
100
AcDbLayout
  1
_Trimetric
 70
     1
 71
     7
 10
0.0
 20
0.0
 11
0.0
 21
0.0
 12
0.0
 22
0.0
 32
0.0
 14
0.0
 24
0.0
 34
0.0
 15
0.0
 25
0.0
 35
0.0
146
0.0
 13
0.0
 23
0.0
 33
0.0
 16
1.0
 26
0.0
 36
0.0
 17
0.0
 27
1.0
 37
0.0
 76
     0
330
2A7
331
484
  0
LAYOUT
  5
396
102
{ACAD_REACTORS
330
1A
102
}
330
1A
100
AcDbPlotSettings
  1

  2
none_device
  4
ISO_A4_(210.00_x_297.00_MM)
  6

 40
7.5
 41
20.0
 42
7.5
 43
20.0
 44
210.0
 45
297.0
 46
0.0
 47
0.0
 48
0.0
 49
0.0
140
0.0
141
0.0
142
1.0
143
0.6221588092
 70
   688
 72
     1
 73
     1
 74
     1
  7

 75
     0
147
1.6073066639
148
79.9645918664
149
-23.5
100
AcDbLayout
  1
ISO PERSP
 70
     1
 71
     9
 10
0.0
 20
0.0
 11
0.0
 21
0.0
 12
0.0
 22
0.0
 32
0.0
 14
0.0
 24
0.0
 34
0.0
 15
0.0
 25
0.0
 35
0.0
146
0.0
 13
0.0
 23
0.0
 33
0.0
 16
1.0
 26
0.0
 36
0.0
 17
0.0
 27
1.0
 37
0.0
 76
     0
330
395
331
488
  0
LAYOUT
  5
408
102
{ACAD_REACTORS
330
1A
102
}
330
1A
100
AcDbPlotSettings
  1

  2
none_device
  4
ISO_A4_(210.00_x_297.00_MM)
  6

 40
7.5
 41
20.0
 42
7.5
 43
20.0
 44
210.0
 45
297.0
 46
0.0
 47
0.0
 48
0.0
 49
0.0
140
0.0
141
0.0
142
1.0
143
0.6221588092
 70
   688
 72
     1
 73
     1
 74
     1
  7

 75
     0
147
1.6073066639
148
79.9645918664
149
-23.5
100
AcDbLayout
  1
ISO PERSP BACK
 70
     1
 71
    10
 10
0.0
 20
0.0
 11
0.0
 21
0.0
 12
0.0
 22
0.0
 32
0.0
 14
0.0
 24
0.0
 34
0.0
 15
0.0
 25
0.0
 35
0.0
146
0.0
 13
0.0
 23
0.0
 33
0.0
 16
1.0
 26
0.0
 36
0.0
 17
0.0
 27
1.0
 37
0.0
 76
     0
330
407
331
48A
  0
LAYOUT
  5
22
102
{ACAD_REACTORS
330
1A
102
}
330
1A
100
AcDbPlotSettings
  1

  2
none_device
  4
ANSI_A_(11.00_x_8.50_Inches)
  6

 40
6.35
 41
19.05
 42
6.35000508
 43
19.05000254
 44
279.4
 45
215.9
 46
133.322885708
 47
112.1626970434
 48
0.0
 49
0.0
140
0.0
141
0.0
142
0.0681085635
143
1.0
 70
  1696
 72
     0
 73
     0
 74
     0
  7

 75
     0
147
0.0179189148
148
-1300.4909072572
149
0.0
100
AcDbLayout
  1
Model
 70
     1
 71
     0
 10
0.0
 20
0.0
 11
420.0
 21
297.0
 12
0.0
 22
0.0
 32
0.0
 14
-79.930222093
 24
-26.893953331
 34
0.0
 15
79.9615659287
 25
0.0
 35
0.0
146
0.0
 13
0.0
 23
0.0
 33
0.0
 16
1.0
 26
0.0
 36
0.0
 17
0.0
 27
1.0
 37
0.0
 76
     0
330
1F
331
29
  0
MLINESTYLE
  5
18
102
{ACAD_REACTORS
330
17
102
}
330
17
100
AcDbMlineStyle
  2
Standard
 70
     0
  3

 62
   256
 51
90.0
 52
90.0
 71
     2
 49
0.5
 62
   256
  6
BYLAYER
 49
-0.5
 62
   256
  6
BYLAYER
  0
ACDBPLACEHOLDER
  5
F
102
{ACAD_REACTORS
330
E
102
}
330
E
  0
SCALE
  5
48
102
{ACAD_REACTORS
330
47
102
}
330
47
100
AcDbScale
 70
     0
300
1:1
140
1.0
141
1.0
290
     1
  0
SCALE
  5
49
102
{ACAD_REACTORS
330
47
102
}
330
47
100
AcDbScale
 70
     0
300
1:2
140
1.0
141
2.0
290
     0
  0
SCALE
  5
4A
102
{ACAD_REACTORS
330
47
102
}
330
47
100
AcDbScale
 70
     0
300
1:4
140
1.0
141
4.0
290
     0
  0
SCALE
  5
4B
102
{ACAD_REACTORS
330
47
102
}
330
47
100
AcDbScale
 70
     0
300
1:5
140
1.0
141
5.0
290
     0
  0
SCALE
  5
4C
102
{ACAD_REACTORS
330
47
102
}
330
47
100
AcDbScale
 70
     0
300
1:8
140
1.0
141
8.0
290
     0
  0
SCALE
  5
4D
102
{ACAD_REACTORS
330
47
102
}
330
47
100
AcDbScale
 70
     0
300
1:10
140
1.0
141
10.0
290
     0
  0
SCALE
  5
4E
102
{ACAD_REACTORS
330
47
102
}
330
47
100
AcDbScale
 70
     0
300
1:16
140
1.0
141
16.0
290
     0
  0
SCALE
  5
4F
102
{ACAD_REACTORS
330
47
102
}
330
47
100
AcDbScale
 70
     0
300
1:20
140
1.0
141
20.0
290
     0
  0
SCALE
  5
50
102
{ACAD_REACTORS
330
47
102
}
330
47
100
AcDbScale
 70
     0
300
1:30
140
1.0
141
30.0
290
     0
  0
SCALE
  5
51
102
{ACAD_REACTORS
330
47
102
}
330
47
100
AcDbScale
 70
     0
300
1:40
140
1.0
141
40.0
290
     0
  0
SCALE
  5
52
102
{ACAD_REACTORS
330
47
102
}
330
47
100
AcDbScale
 70
     0
300
1:50
140
1.0
141
50.0
290
     0
  0
SCALE
  5
53
102
{ACAD_REACTORS
330
47
102
}
330
47
100
AcDbScale
 70
     0
300
1:100
140
1.0
141
100.0
290
     0
  0
SCALE
  5
54
102
{ACAD_REACTORS
330
47
102
}
330
47
100
AcDbScale
 70
     0
300
2:1
140
2.0
141
1.0
290
     0
  0
SCALE
  5
55
102
{ACAD_REACTORS
330
47
102
}
330
47
100
AcDbScale
 70
     0
300
4:1
140
4.0
141
1.0
290
     0
  0
SCALE
  5
56
102
{ACAD_REACTORS
330
47
102
}
330
47
100
AcDbScale
 70
     0
300
8:1
140
8.0
141
1.0
290
     0
  0
SCALE
  5
57
102
{ACAD_REACTORS
330
47
102
}
330
47
100
AcDbScale
 70
     0
300
10:1
140
10.0
141
1.0
290
     0
  0
SCALE
  5
58
102
{ACAD_REACTORS
330
47
102
}
330
47
100
AcDbScale
 70
     0
300
100:1
140
100.0
141
1.0
290
     0
  0
SCALE
  5
59
102
{ACAD_REACTORS
330
47
102
}
330
47
100
AcDbScale
 70
     0
300
1/128" = 1'-0"
140
0.0078125
141
12.0
290
     0
  0
SCALE
  5
5A
102
{ACAD_REACTORS
330
47
102
}
330
47
100
AcDbScale
 70
     0
300
1/64" = 1'-0"
140
0.015625
141
12.0
290
     0
  0
SCALE
  5
5B
102
{ACAD_REACTORS
330
47
102
}
330
47
100
AcDbScale
 70
     0
300
1/32" = 1'-0"
140
0.03125
141
12.0
290
     0
  0
SCALE
  5
5C
102
{ACAD_REACTORS
330
47
102
}
330
47
100
AcDbScale
 70
     0
300
1/16" = 1'-0"
140
0.0625
141
12.0
290
     0
  0
SCALE
  5
5D
102
{ACAD_REACTORS
330
47
102
}
330
47
100
AcDbScale
 70
     0
300
3/32" = 1'-0"
140
0.09375
141
12.0
290
     0
  0
SCALE
  5
5E
102
{ACAD_REACTORS
330
47
102
}
330
47
100
AcDbScale
 70
     0
300
1/8" = 1'-0"
140
0.125
141
12.0
290
     0
  0
SCALE
  5
5F
102
{ACAD_REACTORS
330
47
102
}
330
47
100
AcDbScale
 70
     0
300
3/16" = 1'-0"
140
0.1875
141
12.0
290
     0
  0
SCALE
  5
60
102
{ACAD_REACTORS
330
47
102
}
330
47
100
AcDbScale
 70
     0
300
1/4" = 1'-0"
140
0.25
141
12.0
290
     0
  0
SCALE
  5
61
102
{ACAD_REACTORS
330
47
102
}
330
47
100
AcDbScale
 70
     0
300
3/8" = 1'-0"
140
0.375
141
12.0
290
     0
  0
SCALE
  5
62
102
{ACAD_REACTORS
330
47
102
}
330
47
100
AcDbScale
 70
     0
300
1/2" = 1'-0"
140
0.5
141
12.0
290
     0
  0
SCALE
  5
63
102
{ACAD_REACTORS
330
47
102
}
330
47
100
AcDbScale
 70
     0
300
3/4" = 1'-0"
140
0.75
141
12.0
290
     0
  0
SCALE
  5
64
102
{ACAD_REACTORS
330
47
102
}
330
47
100
AcDbScale
 70
     0
300
1" = 1'-0"
140
1.0
141
12.0
290
     0
  0
SCALE
  5
65
102
{ACAD_REACTORS
330
47
102
}
330
47
100
AcDbScale
 70
     0
300
1-1/2" = 1'-0"
140
1.5
141
12.0
290
     0
  0
SCALE
  5
66
102
{ACAD_REACTORS
330
47
102
}
330
47
100
AcDbScale
 70
     0
300
3" = 1'-0"
140
3.0
141
12.0
290
     0
  0
SCALE
  5
67
102
{ACAD_REACTORS
330
47
102
}
330
47
100
AcDbScale
 70
     0
300
6" = 1'-0"
140
6.0
141
12.0
290
     0
  0
SCALE
  5
68
102
{ACAD_REACTORS
330
47
102
}
330
47
100
AcDbScale
 70
     0
300
1'-0" = 1'-0"
140
12.0
141
12.0
290
     0
  0
ENDSEC
  0
EOF
